» » »

10 Years, Empires Tabs (ver.1)

Artists:  A B C D E F G H I J K L M N O P Q R S T U V W X Y Z # 

Empires Tabs (ver.1)

10 Years Tabs
 Rating:
4/5 (5 votes)
Empires lessons Tabs too difficult? Try these video lessons and learn fast
                10 Years - Empires

Guitar 1 - Ryan Johnson
Guitar 2 - Matt Wantland

Dont want to hate here, but version 1 was.....next to horrible.  Sorry dude, but I saw 
and had to correct it.

INTRO
Guitar 1 - 2x
eb|------------------------------|
Bb|------------------------------|
Gb|------------------------------|
Db|------------------555-333-----|
Ab|-----5b5b5b5b5b5b-333-111-----|
Db|0-00--------------------------|
        ^ - gradually bend and release before playing power chords.

VERSE
Both Guitars - 8x
eb|-------------------|
Bb|-------------------|
Gb|--------555-333----|
Db|--------555-333----|
Ab|0-5b----333-111----|
Db|0------------------|

CHORUS - 4x
Both Guitars
eb|----------------------------|
Bb|----------------------------|
Gb|7---7-----7---7-------------|
Db|7-0-7-0---7-0-7-0---3-5-----|
Ab|5-0-5-0---5-0-5-0---3-5-----|
Db|--0---0-----0---0---3-5-----|

VERSE - 4x

INTERLUDE
Guitar 1
eb|------------------------------------|
Bb|------------------------------------|
Gb|------------------------------------|
Db|------------------------------------|
Ab|0-0-0---------0-0-5p0---------------|
Db|0-0-0--(10x)--0-0-5p0---------------|
   . . .

Guitar 2
eb|------------------------------------|
Bb|------------------------------------|
Gb|-------0--------0---------0-------0-|
Db|-----3-------3---------3--------3---|
Ab|-5b------5b-------5b--------5b------|
Db|------------------------------------|

CHORUS - 8x

BRIDGE
Part 1 - Slow, gradual bends here.
Guitar 1        4x
eb|------------------|----------|
Bb|------------------|----------|
Gb|------------------|----------|
Db|-----------0-12-0-|----------|
Ab|0----------0-12-0-|----------|
Db|0--10b-----0-12-0-|--12<<<<--|

Guitar 2       4x
eb|------------------|----------|
Bb|------------------|----------|
Gb|-------------7----|----------|
Db|-----------0-7-0--|----------|
Ab|0--3b------0-5-0--|----------|
Db|0----------0---0--|--12<<<<--|

BRIDGE
Part 2
Guitar 1 - Palm Mute throughout - 4x
eb|-----------------------------------|
Bb|-----------------------------------|
Gb|-----------------------------------|
Db|-----------------------------------|
Ab|0-000-0--0-000-0--0-0--------------|
Db|0-000-0--0-000-0--0-0--------------|
                     ^ ^ - dont play this on the 4th time.

Guitar 2 - no PM, turn volume down to 3/4
eb|------------------------------------|
Bb|------------------------------------|
Gb|------------------------------------|
Db|------------------------------------|
Ab|------------------------3-----------|
Db|0-000-0--0-000-0--0-3-5-------------|
                     ^ ^ ^ ^ - dont play this on the 4th time.

OUTRO
Guitar 1 plays CHORUS - xx

eb|------------------------------------------|
Bb|15-(16x)--13-(16x)------------------------|
Gb|-------------------15-(16x)--14-(16x)-----|
Db|------------------------------------------|
Ab|------------------------------------------|
Db|------------------------------------------|

Both Guitars play CHORUS - 4x
            
Submit corrections

comments powered by Disqus
↑ Back to top | 10 Years Tabs for Empires. Lyrics for acoustic guitar and electric guitar. Tablatures and chords are parodies/interpretations of the original songs. You may use it for private study, scholarship, research or language learning purposes only