» » »

10 Years, Dying Youth Tabs (ver.3)

Artists:  A B C D E F G H I J K L M N O P Q R S T U V W X Y Z # 

Dying Youth Tabs (ver.3)

10 Years Tabs
 Rating:
4.2/5 (5 votes)
Dying Youth lessons Tabs too difficult? Try these video lessons and learn fast
1
                (Intro)
Band: 10 YEARS!!!
Tuning: Standard Eb / Lowest to highest: Eb, Ab, Db, Gb, Bb, Eb

Ok, before anyone guesses this is the beginning of the actual
Dying Youth song on "Division", it's not. It's the 2 minute
instrumental that's played after 11:00 (Daydreamer). I
absolutely LOVES how it sounds, so I spent an hour or 2 playing &
rewinding the damn CD over and over and over again to learn it.
So without further delay, here is the unknown instumental
after Daydreamer, & before Dying Youth.

Hint: There are some slides that confused me A LOT, but if there's
anything wrong, just e-mail me for corrections at

There are 4 main riffs

Riff 1: (Play 2 times)

Eb|---------------------------------------------------------------|
Bb|---------------------------------------------------------------|
Gb|-----4---4---5---4---4---4---4---4---2---2---------------------|
Db|-----------5---------------------------------5-4h5p4-----------|
Ab|---7---7-------7---7---7---7---7---0---0---0---------5h7-------|
Eb|-0-------------------------------------------------------------|
    ^--Let ring


Eb|---------------------------------------------|
Bb|-------------------------------------3/5-----|
Gb|-4---4---5---4---5p4-----4---4-----2---------|
Db|-------5-------------------------0-----------|
Ab|---7-------7---7-----5h7---7---0---------3\2-|
Eb|---------------------------------------------|


Riff 2: (Sort of, but I'm not going to tab it. It's just a
repitition of the open E minor chord & the open C major chord.
Each are strummed 5 times. Listen for the strumming pattern.

Riff 3: (Play four times)

Eb|-5-3h5p3p0-------------|
Bb|-----------3p0-1-------|
Gb|-----------------0-----|
Db|-------------------2---|
Ab|-----------------------|
Eb|---------------------0-|
                  ^-^-^-^--Let ring

Riff 4: (Play 3 times; there are 2 endings on a 4th time played)


Eb|----------------------------|
Bb|----------------------------|
Gb|-----9---7------------------|
Db|---9---9---9----------------|
Ab|-------------7/9-10h12-9h10-|
Eb|-0--------------------------|
    ^Let ring

   Ending 1:                   Ending 2:
Eb|---------------------------|-------------------------|
Bb|---------------------------|-------------------------|
Gb|-----9---7-----------------|-------------------------|
Db|---9---9---9-10-7-9----7---|-------------------------|
Ab|--------------------10---9-|-----7---5---------------|
Eb|-0-------------------------|-0h7---7---7-8-5-7-3-5-2-|


Back to Riff 1: (Play 2 times)

Eb|---------------------------------------------------------------|
Bb|---------------------------------------------------------------|
Gb|-----4---4---5---4---4---4---4---4---2---2---------------------|
Db|-----------5---------------------------------5-4h5p4-----------|
Ab|---7---7-------7---7---7---7---7---0---0---0---------5h7-------|
Eb|-0-------------------------------------------------------------|
    ^--Let ring

       On 2nd time, play slower tempo
Eb|---------------------------------------------|-0-|
Bb|-------------------------------------3/5-----|-0-|
Gb|-4---4---5---4---5p4-----4---4-----2---------|-0-|
Db|-------5-------------------------0-----------|-2-|
Ab|---7-------7---7-----5h7---7---0---------3\2-|-2-|
Eb|---------------------------------------------|-0-|
                            Pick on 2nd time--^

Ok, that's that. Have fun guys, and ROCK ON 10 YEARS LOVERS!!!
            
Submit corrections

comments powered by Disqus
↑ Back to top | 10 Years Tabs for Dying Youth. Lyrics for acoustic guitar and electric guitar. 1 Tablatures and chords are parodies/interpretations of the original songs. You may use it for private study, scholarship, research or language learning purposes only