>
 >
Dying Youth

Dying Youth Guitar Tabs

10 Years - Dying Youth chords, tabs, tablatures, lyrics

Guitar lessons | Add/correct | Request | Top 50 tabs Artists:  A B C D E F G H I J K L M N O P Q R S T U V W X Y Z 0-9

Dying Youth Guitar Tabs – 10 Years

CD, Sheet music, Poster

Do you like Dying Youth? Share with your friends now
Tabs
10 Years
Tuning Db Ab Db Gb Bb Eb

Legend
p-pull off                h-hammer on                /-slide up
\-slide down

The studio version of this song there’s a 3rd guitar but live, guitar
1 and guitar 3 are the same guitar, so you can play your electric as
their acoustic guitar parts.

Intro: Guitar 1 (Acoustic) 00:00
Eb|-----------------------------------------------------------------|
Bb|-----------------------------------------------------------------|
Gb|--------0---------------0---------------0---------------0--------|
Db|-----------4---------------4---------------7---------------7-----|
Ab|--7--7--------7---7--7--------7---9--9--------9---9--9--------9--|
Db|-----------------------------------------------------------------|

Eb|-----------------------------------------------------------------|
Bb|-----------------------------------------------------------------|
Gb|---------7-----------------7----------7---7-7-7-7----------------|
Db|---9--9-----9--------9--9-----9-------7---7-7-7-7----------------|
Ab|--10-10--------10---10-10--------10---5---5-5-5-5----------------|
Db|-----------------------------------------------------------------|

Verse 1: Guitar 1 00:10
Eb|-----------------------------------------------------------------|
Bb|-----------------------------------------------------------------|
Gb|--------0---------------0---------------0---------------0--------|
Db|-----------4---------------4---------------7---------------7-----|
Ab|--7--7--------7---7--7--------7---9--9--------9---9--9--------9--|
Db|-----------------------------------------------------------------|

Eb|-----------------------------------------------------------------|
Bb|-----------------------------------------------------------------|
Gb|---------7-----------------7----------7---7-7-7-7---7---7-7-7-7--|
Db|---9--9-----9--------9--9-----9-------7---7-7-7-7---7---7-7-7-7--|
Ab|--10-10--------10---10-10--------10---5---5-5-5-5---5---5-5-5-5--|
Db|-----------------------------------------------------------------|

Verse 1: Guitar 1 00:20
Eb|-----------------------------------------------------------------|
Bb|-----------------------------------------------------------------|
Gb|--------0---------------0---------------0---------------0--------|
Db|-----------4---------------4---------------7---------------7-----|
Ab|--7--7--------7---7--7--------7---9--9--------9---9--9--------9--|
Db|-----------------------------------------------------------------|

Eb|-----------------------------------------------------------------|
Bb|-----------------------------------------------------------------|
Gb|---------7-----------------7----------7--------------------------|
Db|---9--9-----9--------9--9-----9-------7--------------------------|
Ab|--10-10--------10---10-10--------10---5--------------------------|
Db|-----------------------------------------------------------------|

Chorus 1: Guitar 1 (Acoustic) 00:30
Eb|--------------2----------------3---3--3-3--3---------------------|
Bb|--5-----------0--0--3p1-0h1p0--3---3--3-3--3---------------------|
Gb|--4-----------2--2--2---2------5---5--3-3--5----------4---4---4--|
Db|--2--4-5--5---2--2--2---2------5---5--5-5--5----5-5---4---4---4--|
Ab|--2--4-5--5---0--0--0---0------3---3--3-3--3----5-5---2---2---2--|
Db|--2--4-5--5-------------------------------------5-5--------------|

Chorus 1: Guitar 2 (Clean eletric) 00:30
Eb|-----------------------------------------------------------------|
Bb|--------------5--------------------5--5--5------8-----7----------|
Gb|--------------4--------------------7--7--7------9-----7----------|
Db|--------------2--------------------------------------------------|
Ab|--------------2--------------------------------------------------|
Db|-----------------------------------------------------------------|

Chorus 1: Guitar 1 00:40
Eb|-----------------------------------------------------------------|
Bb|--5----8--7---10-10-1010-10--------12---12-12---7----------------|
Gb|--4----7--7---9--9--9-9--9-----12--12-1212-12---7-----7----------|
Db|--2--4-5--5---7--7--7-7--7-----10--10-1010-10---5-5---4----------|
Ab|--2--4-5--5---7--7--7-7--7-----10--10-1010-10---5-5---5----------|
Db|--2--4-5--5---7--7--7-7--7-----10--10-1010-10---5-5--------------|

Chorus 1: Guitar 2 00:40
Eb|-----------------------------------------------------------------|
Bb|--------------10-10-1010-10----12--12-1212-12---7----------------|
Gb|--------------9--9--9-9--9-----12--12-1212-12---7-----7----------|
Db|--------------7--7--7-7--7-----10--10-1010-10---5-----4----------|
Ab|--------------7-------7--------10-------10-10---5----------------|
Db|--------------7-------7--------10-------10-10---5----------------|

After Chorus: Guitar 1 (Acoustic) 00:51
Eb|-----------------------------------------------------------------|
Bb|--5--------------------------------------------------------------|
Gb|--4--------------------------------------------------------------|
Db|--2--------------------------------------------------------------|
Ab|--2--------------------------------------------------------------|
Db|--2--------------------------------------------------------------|

After Chorus: Guitar 2 00:51
Eb|-----------------------------------------------------------------|
Bb|-----------------------------------------------------------------|
Gb|-------0-----0---------0-----0---------0-----0---------0-----0---|
Db|----------4---------------4-------4-------4-------4-------4------|
Ab|--7---------------7----------------------------------------------|
Db|-----------------------------------------------------------------|

Eb|-----------------------------------------------------------------|
Bb|-----------------------------------------------------------------|
Gb|-------0---------------0---------------0---------------0---------|
Db|----------4---------------4---------------4---------------4------|
Ab|--5---------------5---------------7---------------7--------------|
Db|-----------------------------------------------------------------|

Verse 2: Guitar 2 01:02
Eb|-----------------------------------------------------------------|
Bb|-----------------------------------------------------------------|
Gb|-------0-----0---------0-----0---------0-----0---------0-----0---|
Db|----------4---------------4-------4-------4-------4-------4------|
Ab|--7---------------7----------------------------------------------|
Db|-----------------------------------------------------------------|

Eb|-----------------------------------------------------------------|
Bb|-----------------------------------------------------------------|
Gb|-------0---------------0---------------0---------------0---------|
Db|----------4---------------4---------------4---------------4------|
Ab|--5---------------5---------------7---------------7--------------|
Db|-----------------------------------------------------------------|

Verse 2: Guitar 2 01:12
Eb|-----------------------------------------------------------------|
Bb|-----------------------------------------------------------------|
Gb|-------0-----0---------0-----0---------0-----0---------0-----0---|
Db|----------4---------------4-------4-------4-------4-------4------|
Ab|--7---------------7----------------------------------------------|
Db|-----------------------------------------------------------------|

Eb|-----------------------------------------------------------------|
Bb|-----------------------------------------------------------------|
Gb|-------0---------------0-----------------------------------------|
Db|----------4---------------4--------------------------------------|
Ab|--5---------------5---------------7------------------------------|
Db|-----------------------------------------------------------------|

Chorus 2: Guitar 3 (Distorted) 01:22
Eb|-----------------------------------------------------------------|
Bb|-----------------------------------------------------------------|
Gb|-------------------------------12---------------------11--11--11-|
Db|--2--4-5--5---7--7--7-7--7-----10--10-1010-10---5-5---9---9---9--|
Ab|--2--4-5--5---7--7--7-7--7-----10--10-1010-10---5-5---9---9---9--|
Db|--2--4-5--5---7--7--7-7--7-----10--10-1010-10---5-5---9---9---9--|

Chorus 2: Guitar 2 (Low Distortion) 01:22
Eb|-----------------------------------------------------------------|
Bb|----5-5-5-5--553-3-3p1-0h1p0---5---5---5---5-----8-8-----7-------|
Gb|--44-4--4--4-444-4---------------7---7---7-7----9-----7-----7----|
Db|-----------------------------------------------------------------|
Ab|-----------------------------------------------------------------|
Db|-----------------------------------------------------------------|

Chorus 2: Guitar 3 01:32
Eb|-----------------------------------------------------------------|
Bb|-----------------------------------------------------------------|
Gb|-------------------------------12---------------------11--11--11-|
Db|--2--4-5--5---7--7--7-7--7-----10--10-1010-10---5-5---9---9---9--|
Ab|--2--4-5--5---7--7--7-7--7-----10--10-1010-10---5-5---9---9---9--|
Db|--2--4-5--5---7--7--7-7--7-----10--10-1010-10---5-5---9---9---9--|

Chorus 2: Guitar 2 (Low Distortion) 01:22
Eb|-----------------------------------------------------------------|
Bb|----5-5-5-5--553-3-333-3-333---5---5---5---5-----8-8-----7-------|
Gb|--44-4--4--4-444-4-444-4-444-----7---7---7-7----9-----7----------|
Db|-----------------------------------------------------------------|
Ab|-----------------------------------------------------------------|
Db|-----------------------------------------------------------------|

After Chorus: Guitar 3 01:44
Eb|-----------------------------------------------------------------|
Bb|-----------------------------------------------------------------|
Gb|-----------------------------------------------------------------|
Db|--2--------------------------------------------------------------|
Ab|--2--------------------------------------------------------------|
Db|--2--------------------------------------------------------------|

After Chorus: Guitar 1 (Acoustic) 01:44
Eb|-----------------------------------------------------------------|
Bb|-----------------------------------------------------------------|
Gb|-------0-----0---------0-----0---------0-----0---------0-----0---|
Db|----------4---------------4-------4-------4-------4-------4------|
Ab|--7---------------7----------------------------------------------|
Db|-----------------------------------------------------------------|

Verse 3: Guitar 2 01:48 / 1:58
Eb|-----------------------------------------------------------------|
Bb|-----------------------------------------------------------------|
Gb|-------0-----0---------0-----0---------0-----0---------0-----0---|
Db|----------4---------------4-------4-------4-------4-------4------|
Ab|--7---------------7----------------------------------------------|
Db|-----------------------------------------------------------------|

Eb|-----------------------------------------------------------------|
Bb|-----------------------------------------------------------------|
Gb|-------0---------------0---------------0---------------0---------|
Db|----------4---------------4---------------4---------------4------|
Ab|--5---------------5---------------7---------------7--------------|
Db|-----------------------------------------------------------------|

Chorus 2: Guitar 3 (Distorted) 02:07
Eb|-----------------------------------------------------------------|
Bb|-----------------------------------------------------------------|
Gb|-------------------------------12---------------------11--11--11-|
Db|--2--4-5--5---7--7--7-7--7-----10--10-1010-10---5-5---9---9---9--|
Ab|--2--4-5--5---7--7--7-7--7-----10--10-1010-10---5-5---9---9---9--|
Db|--2--4-5--5---7--7--7-7--7-----10--10-1010-10---5-5---9---9---9--|

Chorus 2: Guitar 2 (Low Distortion) 02:07
Eb|-----------------------------------------------------------------|
Bb|----5-5-5-5--553-3-3p1-0h1p0---5---5---5---5-----8-8-----7-------|
Gb|--44-4--4--4-444-4---------------7---7---7-7----9-----7-----7----|
Db|-----------------------------------------------------------------|
Ab|-----------------------------------------------------------------|
Db|-----------------------------------------------------------------|

Chorus 2: Guitar 3 02:18
Eb|-----------------------------------------------------------------|
Bb|-----------------------------------------------------------------|
Gb|-------------------------------12---------------------11--11--11-|
Db|--2--4-5--5---7--7--7-7--7-----10--10-1010-10---5-5---9---9---9--|
Ab|--2--4-5--5---7--7--7-7--7-----10--10-1010-10---5-5---9---9---9--|
Db|--2--4-5--5---7--7--7-7--7-----10--10-1010-10---5-5---9---9---9--|

Chorus 2: Guitar 2 (Low Distortion) 02:18
Eb|-----------------------------------------------------------------|
Bb|----5-5-5-5--553-3-333-3-333---5---5---5---5-----8-8-----7-------|
Gb|--44-4--4--4-444-4-444-4-444-----7---7---7-7----9-----7----------|
Db|-----------------------------------------------------------------|
Ab|-----------------------------------------------------------------|
Db|-----------------------------------------------------------------|

Bridge: Guitar 2 (Distorted) 02:27 / 02:32 / 02:37 /02:42
Eb|-----------------------------------------------------------------|
Bb|-----------------------------------------------------------------|
Gb|--171717171717--161616161616--131313131313--121212121212---------|
Db|---x-x-x-x-x-x---x-x-x-x-x-x---x-x-x-x-x-x---x-x-x-x-x-x---------|
Ab|--151515151515--141414141414--121212121212--101010101010---------|
Db|-----------------------------------------------------------------|

Bridge: Guitar 3 (Distorted) 02:27 / 02:32 / 02:37 /02:42
Eb|-----------------------------------------------------------------|
Bb|-----------------------------------------------------------------|
Gb|-----------------------------------------------------------------|
Db|--7/9--9-9-9----12------\11---101010101010--7-7-7-7-7-7----------|
Ab|--5/7--7-7-7----10------\-9---101010101010--7-7-7-7-7-7----------|
Db|------------------------------101010101010--7-7-7-7-7-7----------|

Bridge: Guitar 2 (Distorted) 02:47
Eb|-----------------------------------------------------------------|
Bb|-----------------------------------------------------------------|
Gb|--17-------------------------------------------------------------|
Db|---x-------------------------------------------------------------|
Ab|--15-------------------------------------------------------------|
Db|-----------------------------------------------------------------|

Bridge: Guitar 3 (Distorted) 02:47
Eb|-----------------------------------------------------------------|
Bb|-----------------------------------------------------------------|
Gb|--5-----------------------------4---4---4------------------------|
Db|--x----------------5------------x---x---x------------------------|
Ab|--3----------------5------------2---2---2------------------------|
Db|-------------------5---------------------------------------------|

Chorus 3: Guitar 3 (Clean) 02:53
Eb|-------------------------------3---3--3-3--3---------------------|
Bb|--5-----------0--0--3p1-0h1p0--3---3--3-3--3---------------------|
Gb|--4-----------2--2--2---2------5---5--3-3--5----------4---4---4--|
Db|--2--4-5--5---2--2--2---2------5---5--5-5--5----5-5---4---4---4--|
Ab|--2--4-5--5---0--0--0---0------3---3--3-3--3----5-5---2---2---2--|
Db|--2--4-5--5-------------------------------------5-5--------------|

Chorus 3: Guitar 3 (Clean) 1 03:03
Eb|-----------------------------------------------------------------|
Bb|--5----8--7---0--------------------------------------------------|
Gb|--4----7--7---2--------------------------------------------------|
Db|--2--4-5--5---2----------------10--10-1010-10---5-5---9---9---9--|
Ab|--2--4-5--5---0----------------10--10-1010-10---5-5---9---9---9--|
Db|--2--4-5--5--------------------10--10-1010-10---5-5---9---9---9--|
                    Distortion --^

Chorus 2: Guitar 3 (Distorted) 03:13
Eb|-----------------------------------------------------------------|
Bb|-----------------------------------------------------------------|
Gb|-------------------------------12---------------------11--11--11-|
Db|--2--4-5--5---7--7--7-7--7-----10--10-1010-10---5-5---9---9---9--|
Ab|--2--4-5--5---7--7--7-7--7-----10--10-1010-10---5-5---9---9---9--|
Db|--2--4-5--5---7--7--7-7--7-----10--10-1010-10---5-5---9---9---9--|

Chorus 2: Guitar 2 (Low Distortion) 03:13
Eb|-----------------------------------------------------------------|
Bb|----5-5-5-5--553-3-3p1-0h1p0---5---5---5---5-----8-8-----7-------|
Gb|--44-4--4--4-444-4---------------7---7---7-7----9-----7-----7----|
Db|-----------------------------------------------------------------|
Ab|-----------------------------------------------------------------|
Db|-----------------------------------------------------------------|

Chorus 2: Guitar 3 03:23
Eb|-----------------------------------------------------------------|
Bb|-----------------------------------------------------------------|
Gb|-------------------------------12---------------------11--11--11-|
Db|--2--4-5--5---7--7--7-7--7-----10--10-1010-10---5-5---9---9---9--|
Ab|--2--4-5--5---7--7--7-7--7-----10--10-1010-10---5-5---9---9---9--|
Db|--2--4-5--5---7--7--7-7--7-----10--10-1010-10---5-5---9---9---9--|

Chorus 2: Guitar 2 (Low Distortion) 03:23
Eb|-----------------------------------------------------------------|
Bb|----5-5-5-5--553-3-333-3-333---5---5---5---5-----8-8-----7-------|
Gb|--44-4--4--4-444-4-444-4-444-----7---7---7-7----9-----7----------|
Db|-----------------------------------------------------------------|
Ab|-----------------------------------------------------------------|
Db|-----------------------------------------------------------------|

Outro Chord Guitar 3 03:34
Eb|-----------------------------------------------------------------|
Bb|-----------------------------------------------------------------|
Gb|-----------------------------------------------------------------|
Db|--2--------------------------------------------------------------|
Ab|--2--------------------------------------------------------------|
Db|--2--------------------------------------------------------------|

Finished!





Comments


Popular 10 Years tabs & chords
Beautiful 1 Bass Tabs
Fix Me 2 Chords
Actions And Motives Tabs
And All The Other Colors Tabs
Dead In The Water Tabs
Dying Youth Intro 1 Tabs
Just Cant Win Intro Tabs
Pacemaker Tabs
Paralyzing Kings Tabs
So Long Goodbye Ukulele


Song lyrics



↑ Back to top | Tablatures and chords are parodies/interpretations of the original songs. You may use it for private study, scholarship, research or language learning purposes only
© 2014 AZChords.com Contact us | Privacy policy | DMCA | Add/correct tabs | Request tabs | Top 50 tabs