» » »

10 Years, Dancing With The Dead Tabs (ver.1)

Artists:  A B C D E F G H I J K L M N O P Q R S T U V W X Y Z # 

Dancing With The Dead Tabs (ver.1)

10 Years Tabs
Rating:
0/5 (0 votes)
Dancing With The Dead lessons Tabs too difficult? Try these video lessons and learn fast
                10 Years: Dancing With The Dead




Tuning: Drop C# (C#,G#,C#,F#,A#,D#)

Riff 1 (clean)
D#|----------------------------------------0---|
A#|----------------------------5h6-5-----------|
F#|---------5------------5-----5---5-----7---7-|
C#|-7---5h7---7--7---5h7---7-----------7-------| (let all notes ring)
G#|---0------------0---------------------------|
C#|--------------------------------------------|

Play Riff 1 x6   "Blaze rage red is the color of youth..."

Riff 2 (distortion)  "Falling like a stone again..."
D#|----------------------------------------------------------------------|
A#|----------------------------------------------------------------------|
F#|-------------------------------10-10-10-10-10-10-10---9-9-9-9-9-9-9---|
C#|-------------------------------7--7--7--7--7--7--7----7-7-7-7-7-7-7---|
G#|-------------------------------8--8--8--8--8--8--8----7-7-7-7-7-7-7---|
C#|-7-0-5/7-10-7-0-7-0-5/7-10-7-0----------------------0---------------0-|

D#|---------------------------------------------------------------------|
A#|---------------------------------------------------------------------|
F#|------------------------------10-10-10-10-10-10-10---9-9-9-9-9-9-9-9-|
C#|------------------------------7--7--7--7--7--7--7----7-7-7-7-7-7-7-7-|
G#|------------------------------8--8--8--8--8--8--8----7-7-7-7-7-7-7-7-|
C#|-7-0-5/7-10-7-7--0-5/7-10-7-0----------------------0-----------------|

Riff 3
D#|-------------------------------------------------|
A#|-------------------------------------------------|
F#|-12-12-12----------12-12-12----------12-12-------|
C#|----------14-14-14----------14-14-14-------14-14-|
G#|-------------------------------------------------|
C#|-------------------------------------------------|
    *  *  *  *  *  *  *  *  *  *  *  *  *  *  *  *

Riff 4    "Take me all the way to the end..."
D#|-----------------------------------------------------------|
A#|-----------------------------------------------------------|
F#|-----------------------------------------------------------|
C#|-----------------------------------------------------------|
G#|-7-7-7-7-7--7-7-8-8-8-8--8-8-10-10-10-10--10-------3-3-3-2-|
C#|-7-7-7-7-7--7-7-7-7-7-7--7-7-7--7--7--7---7--7-5-0---3-3-2-|

Play Riff 4 x2   "Show me how you want it to end..."

Riff 5    "Keep dancing with the dead..."
D#|----------------------------------------------------------------------|
A#|----------------------------------------------------------------------|
F#|----------------------------------------------------------------------|
C#|----------------------------------------------------------------------|
G#|-7-7-7-7-7-7-7-7-7-8-8-8-8-8-8-8-8-10-10-10-10-10-10-10-------3-3-3-2-|
C#|-7-7-7-7-7-7-7-7-7-7-7-7-7-7-7-7-7-7--7--7--7--7--7--7--7-5-0---3-3-2-|

Play Riff 5 x2   "Keep dancing with the dead, go ahead..."

Fill 1 (clean)
D#|---------------|
A#|---------------|
F#|-/5-----4------|
C#|-----7-------5-|
G#|---------------|
C#|---------------|

Play Riff 1 x3   "Eyes pitch black with the heart attacks..."
Play Riff 2 x1   "Falling like a stone again..."
Play Riff 3 x1
Play Riff 4 x2   "Take me all the way to the end..."
Play Riff 5 x2   "Keep dancing with the dead..."

Fill 2
D#|------------------|
A#|--------6~--------|
F#|--------7~--------|
C#|--------0~----\\\-|
G#|-0~-----0~----\\\-|
C#|-0~-----------\\\-|

Riff 6   "The devil's in your head..."
D#|---------------------------------------------------------|
A#|---------------------------------------------------------|
F#|---------------------------------------------------------|
C#|---------------------------------------------------------|
G#|-----------------------------------------10-10--10-10-10-|
C#|-0-0-001p0-0---000-001p0-0---0-0-001p0-3/10-10--10-10-10-|
    * * *** * *   *** *** * *   * * *** *

D#|------------------------------------------------------------|
A#|------------------------------------------------------------|
F#|------------------------------------------------------------|
C#|------------------------------------------------------------|
G#|-----------------------------------------10-10--10-10-10-10-|
C#|-0-0-001p0-0---000-001p0-0---0-0-001p0-3/10-10--10-10-10-10-|
    * * *** * *   *** *** * *   * * *** *

Riff 7
D#|------|
A#|------|
F#|-7b9'-|
C#|------| (gradually bend this note a full step while tremolo picking)
G#|------|
C#|------|

Play Riff 3 x2
Play Riff 4 x2   "Take me all the way to the end..."
Play Riff 5 x2   "Keep dancing with the dead..."
Play Riff 6 x1   (end of song)

Enjoy!!
            
Submit corrections

comments powered by Disqus
↑ Back to top | 10 Years Tabs for Dancing With The Dead. Lyrics for acoustic guitar and electric guitar. Tablatures and chords are parodies/interpretations of the original songs. You may use it for private study, scholarship, research or language learning purposes only