>
 >
Chasing The Rapture

Chasing The Rapture Guitar Tabs

10 Years - Chasing The Rapture chords, tabs, tablatures, lyrics

Guitar lessons | Add/correct | Request | Top 50 tabs Artists:  A B C D E F G H I J K L M N O P Q R S T U V W X Y Z 0-9

Chasing The Rapture Guitar Tabs – 10 Years

CD, Sheet music, Poster

Do you like Chasing The Rapture? Share with your friends now
Tabs

Tunning: Guitars 1 & 2: Drop Db/C#

---KEY---
h=hammer ons
\=slide down neck
pm..=palm mute
---KEY---

Intro
Guitar 1
eb|--------------------------------------------------------------|
Bb|---11--11-11---11-11---11-11------10--10-10-------------------|
Gb|-12--12------12------12------12-10--10------10---10--10-10----|
Db|-----------------------------------------------12--12------12-|
Ab|--------------------------------------------------------------|
Db|--------------------------------------------------------------|


eb|-----------------------------------------------------------------|
Bb|---11--11-11---11-11---11-11------10--10-10----------------------|
Gb|-12--12------12------12------12-10--10------10---10--10--10--10--|
Db|-----------------------------------------------12--12--10--10----|
Ab|-----------------------------------------------------------------|
Db|-----------------------------------------------------------------|

Verse
Guitar 1
eb|--------------------------------------------------------------|
Bb|---11--11-11---11-11---11-11------10--10-10-------------------|
Gb|-12--12------12------12------12-10--10------10---10--10-10----|
Db|-----------------------------------------------12--12------12-|
Ab|--------------------------------------------------------------|
Db|--------------------------------------------------------------|


eb|-----------------------------------------------------------------|
Bb|---11--11-11---11-11---11-11------10--10-10----------------------|play
Gb|-12--12------12------12------12-10--10------10---10--10--10--10--|both
Db|-----------------------------------------------12--12--10--10----|lines
Ab|-----------------------------------------------------------------|twice
Db|-----------------------------------------------------------------|

Guitar 2
eb|-----------------------------------------------------------------------|
Bb|-----------------------------------------------------------------------|
Gb|-----------------------------------------------------------------------|
Db|-----------------------------------------------------------------------|x2
Ab|-----------------------------------------------------------------------|
Db|-5555-555-555-55-8888-888-333-33-5555-555-555-55-8888-888-101010101010-|
pm  .... ... ... .. .... ... ... .. .... ... ... .. .... ... . . . . . . 

Chorus
Both Guitars
eb|---------------------------------------------------------|
Bb|---------------------------------------------------------|
Gb|---------------------------------------------------------|
Db|-5555555555555555-8\3-8\3-33-5555555555555555-8\3-0-3-55-|
Ab|-5555555555555555-8\3-8\3-33-5555555555555555-8\3-0-3-55-|
Db|-5555555555555555-8\3-8\3-33-5555555555555555-8\3-0-3-55-|

eb|---------------------------------------------------------|
Bb|---------------------------------------------------------|
Gb|---------------------------------------------------------|
Db|-5555555555555555-8\3-8\3-33-5555555555555555-8\3-0-3-55-|
Ab|-5555555555555555-8\3-8\3-33-5555555555555555-8\3-0-3-55-|
Db|-5555555555555555-8\3-8\3-33-5555555555555555-8\3-0-3-55-|

eb|-------------|
Bb|-------------|
Gb|-------------|
Db|-8\3-0-3--55-|
Ab|-8\3-0-3--55-|
Db|-8\3-0-3--55-|

Transition to 2nd Chorus
Guitar 1
eb|-----------------------------|
Bb|-11-----10-----11-----10-----|
Gb|-12-----10-----12-----10-----|
Db|-----------------------------|
Ab|-----------------------------|
Db|-----------------------------|

Guitar 2
eb|------------------------------------|
Bb|------------------------------------|
Gb|------------------------------------|
Db|-5------8------5------8-------------|
Ab|-5------8------5------8--00000000---|
Db|-5------8------5------8--00000000---|
pm                          ........

Bridge
Both Guitars
eb|--------------------|
Bb|--------------------|
Gb|--------------------|
Db|--------------------|x8 (Pause between first and second 4 times)
Ab|------3-------------|
Db|-3h5-5-555533331111-|

eb|----------------------------------|
Bb|----------------------------------|
Gb|----------------------------------|
Db|-5-----8\3--8\3--5-----8\3-0-3--5-|
Ab|-5-----8\3--8\3--5-----8\3-0-3--5-|
Db|-5-----8\3--8\3--5-----8\3-0-3--5-|

Last Chorus
Both Guitars
eb|----------------------------------------------------------|
Bb|----------------------------------------------------------|
Gb|----------------------------------------------------------|
Db|-5555555555555555-8\3--8\3-33-5555555555555555-8\3-0-3-55-|
Ab|-5555555555555555-8\3--8\3-33-5555555555555555-8\3-0-3-55-|
Db|-5555555555555555-8\3--8\3-33-5555555555555555-8\3-0-3-55-|

eb|----------------------------------------------------------|
Bb|----------------------------------------------------------|
Gb|----------------------------------------------------------|
Db|-5555555555555555-8\3--8\3-33-5555555555555555-8\3-0-3-55-|
Ab|-5555555555555555-8\3--8\3-33-5555555555555555-8\3-0-3-55-|
Db|-5555555555555555-8\3--8\3-33-5555555555555555-8\3-0-3-55-|

eb|-------------|-----------------|
Bb|-------------|-----------------|
Gb|-------------|-----------------|
Db|-8\3-0-3--55-|-88-33-00-33-5-5-|
Ab|-8\3-0-3--55-|-88-33-00-33-5-5-|
Db|-8\3-0-3--55-|-88-33-00-33-5-5-|

Ending
Both Guitars          x4
eb|--------------------|---|
Bb|--------------------|-3-|
Gb|--------------------|-3-|
Db|--------------------|-1-|
Ab|------3-------------|-1-|
Db|-3h5-5-555533331111-|-1-|


---ORDER---
Intro
Verse
Chorus
Verse
Trans. to 2nd Chorus
Chorus
Bridge
Last Chorus
Ending
---ORDER---


Another great song by 10 Years. I'm still a little iffy on the notes in the intro. enjoy


-Sylahr





Comments


Popular 10 Years tabs & chords
Fix Me Bass Tabs
Fix Me Chords
Angelic Tabs
Dying Youth Intro Tabs
Focus Tabs
Pacemaker Tabs
Proud Of You Intro Tabs
Silhouette Of A Life Intro Tabs
Waking Up 3 Tabs
Wasteland Tabs


Song lyrics



↑ Back to top | Tablatures and chords are parodies/interpretations of the original songs. You may use it for private study, scholarship, research or language learning purposes only
© 2014 AZChords.com Contact us | Privacy policy | DMCA | Add/correct tabs | Request tabs | Top 50 tabs