» » »

10 Years, Beautiful Bass tabs (ver.2)

Artists:  A B C D E F G H I J K L M N O P Q R S T U V W X Y Z # 

Beautiful Bass tabs (ver.2)

10 Years Tabs
 Rating:
4/5 (4 votes)
Beautiful lessons Tabs too difficult? Try these video lessons and learn fast
1
                Tuning (Low to High): B G C F - Same as Drop C (C G C F), but with the low C tuned down 
B. I am in a band with two 4-strings. One in Drop D/Standard and in Drop C/Whole Step, 
I just drop the top string to B for songs in B (like this...)

Intro
F-------------------------------|
C-------------------------------|
G-------------------------------|
B-2~-22-22-22-2-5~-55-55-55-5~--|

Verse
F-----------------------------------------------|
C-----------------------------------------------| 2x
G-----------------------------------------------|
B-2~-22-22-22-2--5-57-7--2~-22-2--5-55-57-77-7--|

Chorus
F-------------------------------------------------------------|
C-------------------------------------------------------------|
G------------4~-2~-22-22-2----------------4~-2~-22-22-2-------|
B-2~-22-22-2----------------0~-2~-22-22-2---------------0~-2~-|

Post-Chorus
d-----------------------------------------|
a-----------------------------------------|
e--------------------------6-4------------|
b-2~-22-2---5-55-57-77-7~-------9-7--4-2--|

Verse
F-----------------------------------------------|
C-----------------------------------------------| 2x
G-----------------------------------------------|
B-2~-22-22-22-2--5-57-7--2~-22-2--5-55-57-77-7--|

Chorus
F-------------------------------------------------------------|
C-------------------------------------------------------------|
G------------4~-2~-22-22-2----------------4~-2~-22-22-2-------|
B-2~-22-22-2----------------0~-2~-22-22-2---------------0~-2~-|

Bridge
F------------------------------------|
C------1-2-1~---1-2-1----------------| 3x
G----1--------1-------1-2~-4-2~-1----|
B-2~------------------------------7--|

F-----------------------------------------|
C------1-2-1~---1-2-1---------------------|
G----1--------1-------1-2~-4~-2~-4~-1~----|
B-2~-----------------------------------2~-|

Out-Chorus
F-------------------------------------------------------------|
C-------------------------------------------------------------|
G------------4~-2~-22-22-2----------------4~-2~-22-22-2-------|
B-2~-22-22-2----------------0~-2~-22-22-2---------------0~-2~-|

Song Format: (in case you have the parts memorized, but forget the order)
Intro
Verse
Chorus
Post-Chorus
Verse
Chorus
Bridge
Out-Chorus
            
Submit corrections

comments powered by Disqus
↑ Back to top | 10 Years Bass for Beautiful. Lyrics for acoustic guitar and electric guitar. 1 Tablatures and chords are parodies/interpretations of the original songs. You may use it for private study, scholarship, research or language learning purposes only