» » »

10 Years, Beautiful Bass tabs (ver.1)

Artists:  A B C D E F G H I J K L M N O P Q R S T U V W X Y Z # 

Beautiful Bass tabs (ver.1)

10 Years Tabs
 Rating:
4/5 (4 votes)
Beautiful lessons Tabs too difficult? Try these video lessons and learn fast
1
                ~intro~
g-------------------------------|
d-------------------------------|
a-------------------------------|
e----------------0~-00-00-00-0~-|
b-2~-22-22-22-2~----------------|

~verse 1~
g------------------------------------------|
d------------------------------------------|
a------------------------------------------| 2x
e--------------0-02-2--------0-00-02-22-2--|
b-2~-22-22-22-2-------2~-22-2--------------|

~chorus~
g--------------------------------------------------------|
d--------------------------------------------------------|
a-----------2~-0~-00-00-0-------------2~-0~-00-00-0------|
e--------------------------------------------------------|
b-2~-22-22-2-------------0~-2~-22-22-2-------------0~-2~-|

~post-chorus~
g-----------------------------------|
d-----------------------------------|
a---------------------4~-2----------|
e--------0-00-02-22-2~-----4-2------|
b-2~-22-2----------------------4-2~-|

~verse 2~
g------------------------------------------|
d------------------------------------------|
a------------------------------------------| 2x
e--------------0-02-2--------0-00-02-22-2--|
b-2~-22-22-22-2-------2~-22-2--------------|

~chorus~
g---------------------------------------------------------|
d---------------------------------------------------------|
a-----------2~-0~-00-00-0-------------2~-0~-00-00-0-------| 2x
e---------------------------------------------------------|
b-2~-22-22-2-------------0~-2~-22-22-2-------------0~-2~--|

~bridge~
g-----------------------------------|
d--------0--------0-----------------|
a------4---4~---4---4---0~-2-0------| 3x
e----4--------4-------4--------4-2~-|
b-2~--------------------------------|

g-----------------------------------------|
d--------0--------0-----------------------|
a------4---4~---4---4---0~-2~-0~-2~-------|
e----4--------4-------4-------------4~----|
b-2~-----------------------------------2~-|

~final chorus~
g---------------------------------------------------------|
d---------------------------------------------------------|
a-----------2~-0~-00-00-0-------------2~-0~-00-00-0-------| 2x
e---------------------------------------------------------|
b-2~-22-22-2-------------0~-2~-22-22-2-------------0~-2~--|

Normal Tuning (high-low) g-d-a-e-b

~=Hold note for however long

The timings not perfect, but the notes are there and any missing ones could easily be 
in.I think this is at LEAST 95% correct.

this is my first of hopefully many tabs. :)
            
Submit corrections

comments powered by Disqus
↑ Back to top | 10 Years Bass for Beautiful. Lyrics for acoustic guitar and electric guitar. 1 Tablatures and chords are parodies/interpretations of the original songs. You may use it for private study, scholarship, research or language learning purposes only