» » »

10 Years, And All The Other Colors Tabs (ver.1)

Artists:  A B C D E F G H I J K L M N O P Q R S T U V W X Y Z # 

And All The Other Colors Tabs (ver.1)

10 Years Tabs
 Rating:
4/5 (4 votes)
And All The Other Colors lessons Tabs too difficult? Try these video lessons and learn fast
1
                10 Years: ...And All The Other Colors




Tuning: Drop C# (C#,G#,C#,F#,A#,D#)

Riff 1 (very light distortion)
D#|------------------------------------|
A#|------------------------------------|
F#|-7~---5~---4~-----3~---2~---0~------|
C#|-8~---7~---5~-----5~---3~---0~------|
G#|------------------6~----------------|
C#|------------------------------------|

Play Riff 1 x6   "...the past lives we lay to rest..."

Riff 2 (distortion)   "Leaving this body of mine, behind..."
D#|--------------------------------------------------|
A#|--------------------------------------------------|
F#|--------------------------------------------------|
C#|--------------------------------------------------|
G#|-5b6r5-3-5-0-5b6r5-3-5-0-5b6r5-3-5-0-5b6r5-6-5~-0-|
C#|-5b6r5-3-5-0-5b6r5-3-5-0-5b6r5-3-5-0-5b6r5------0-|

Play Riff 2 x4    "Bleeding into the divine, divine..."
Play Riff 1 x2    "This quick new reality..."
Play Riff 2 x4    "Leaving this body of mine, behind..."

Riff 3 - Guitar 1 (light distortion w/ delay)
D#|-------------------------------------------|
A#|-7~-------------------7~-------------------|
F#|----7~-------------------7~----------------|
C#|-------5~-------------------0~-------------|
G#|-------------------------------------------|
C#|-------------------------------------------|

Play Riff 3 (Guitar 1) x4  "It's no good, no good..."

Riff 3 - Guitar 2
D#|---------------------------------------------------------|
A#|---------------------------------------------------------|
F#|---------------------------------------------------------|
C#|-0-0-0-0-0-0-3-3-3-3-3-3-7-7-7-7-7-7-7-7-7-7-7-7-7-7-7-7-|
G#|-0-0-0-0-0-0-3-3-3-3-3-3-5-5-5-5-5-5-5-5-5-5-5-5-5-5-5-5-|
C#|-0-0-0-0-0-0-3-3-3-3-3-3-5-5-5-5-5-5-5-5-5-5-5-5-5-5-5-5-|
    * * * * * * * * * * * * * * * * * * * * * * * * * * * *

Play Riff 3 (Guitar 2) x6  "It's no good, no good..."
Play Riff 2 x4             "And all the other colors..."

Riff 4 (repeats over and over during drum solo)
D#|-------------------------|
A#|-------------------------|
F#|---7b8r7-5-7---7b8r7-5-7-|
C#|-0-----------0-----------|
G#|-------------------------|
C#|-------------------------|

Play Riff 4 a bunch of times

Riff 5    "And all the other colors..."
D#|-------------------------------------------------|
A#|-------------------------------------------------|
F#|-------------------------------------------------|
C#|-------------------------------------------------|
G#|-5b6r5-3-5-0-5b6r5-3-5-0-5b6r5-3-5-0-5b6r5-3-5-0-|
C#|-5b6r5-3-5-0-5b6r5-3-5-0-5b6r5-3-5-0-5b6r5-3-5-0-|

Play Riff 4 x2

Ending   "I'm leaving this body of mine, behind!"
D#|------------------------------------------------|
A#|------------------------------------------------|
F#|------------------------------------------------|
C#|------------------------------------------------|
G#|-5b6r5-3-5-0-5b6r5-3-5-0-5b6r5-3-5-0-5b6r5-3-5\-|
C#|-5b6r5-3-5-0-5b6r5-3-5-0-5b6r5-3-5-0-5b6r5-3-5\-|

Enjoy!
            
Submit corrections

comments powered by Disqus
↑ Back to top | 10 Years Tabs for And All The Other Colors. Lyrics for acoustic guitar and electric guitar. 1 Tablatures and chords are parodies/interpretations of the original songs. You may use it for private study, scholarship, research or language learning purposes only