>
 >
All Your Lies 1

All Your Lies 1 Guitar Tabs

10 Years - All Your Lies 1 chords, tabs, tablatures, lyrics

Guitar lessons | Add/correct | Request | Top 50 tabs Artists:  A B C D E F G H I J K L M N O P Q R S T U V W X Y Z 0-9

All Your Lies 1 Guitar Tabs – 10 Years

CD, Sheet music, Poster

Do you like All Your Lies 1? Share with your friends now
TabsTabs v2
10 Years                   *UPDATED 6/11/2008 UPDATED*
All Your Lies
Tuning Db Ab Db Gb Bb Eb

Legend
\-slide down

Intro/verse Guitar 1 (Distorted & palm muted): 00:00
Eb|------------------------------------------------------------------|
Bb|------------------------------------------------------------------|
Gb|------------------------------------------------------------------|
Db|--3-3-3-3-3-3-3-3-3-3-3-3-3-3-3-3-3-3-3-3-3-3-3-3-3-3-3-3-3-3-3-3-|
Ab|--5-5-5-5-5-5-5-5-5-5-5-5-5-5-5-5-5-5-5-5-5-5-5-5-5-5-1-1-1-0-0-0-|
Db|--0-0-0-0-0-0-0-0-0-0-0-0-0-0-0-0-0-0-0-0-0-0-0-0-0-0-0-0-0-0-0-0-|
                                                                     |
Intro/verse Guitar 2 (low Distortion):                               |
Eb|------------------------------------------------------------------|
Bb|------------------------------------------------------------------|
Gb|--------------------------0-----------------------0---------------|
Db|----------------------3-----------------------3-------------------|
Ab|------------------------------------------------------------------|
Db|------------------------------------------------------------------|
                                                                     |
Intro/verse Guitar 3 (low Distortion):                               |
Eb|------------------------------------------------------------------|
Bb|----------------------------------------------------------18------|
Gb|------------------------------------------------------21----------|
Db|------------------------------------------------------------------|
Ab|------------------------------------------------------------------|
Db|------------------------------------------------------------------|

Intro/verse Guitar 1 (Distorted & palm muted): 00:12
Eb|------------------------------------------------------------------|
Bb|------------------------------------------------------------------|
Gb|------------------------------------------------------------------|
Db|--3-3-3-3-3-3-3-3-3-3-3-3-3-3-3-3-3-3-3-3-3-3-3-3-3-3-3-3-3-3-3-3-|
Ab|--5-5-5-5-5-5-5-5-5-5-5-5-5-5-5-5-5-5-5-5-5-5-5-5-5-5-1-1-1-0-0-0-|
Db|--0-0-0-0-0-0-0-0-0-0-0-0-0-0-0-0-0-0-0-0-0-0-0-0-0-0-0-0-0-0-0-0-|
                                                                     |
Intro/verse Guitar 2 (low Distortion):                               |
Eb|------------------------------------------------------------------|
Bb|------------------------------------------------------------------|
Gb|--------------0-----------------------0---------------------------|
Db|----------3-----------------------3-------------------------------|
Ab|------------------------------------------------------------------|
Db|------------------------------------------------------------------|
                                                                     |
Intro/verse Guitar 3 (low Distortion):                               |
Eb|------------------------------------------------------------------|
Bb|------------18----------------------18--------------------18------|
Gb|--------21----------------------21--------------------21----------|
Db|------------------------------------------------------------------|
Ab|------------------------------------------------------------------|
Db|------------------------------------------------------------------|

Intro/verse Guitar 1 (Distorted & palm muted): 00:21
Eb|------------------------------------------------------------------|
Bb|------------------------------------------------------------------|
Gb|------------------------------------------------------------------|
Db|--3-3-3-3-3-3-3-3-3-3-3-3-3-3-3-3-3-3-3-3-3-3-3-3-3-3-3-3-3-3-3-3-|
Ab|--5-5-5-5-5-5-5-5-5-5-5-5-5-5-5-5-5-5-5-5-5-5-5-5-5-5-1-1-1-0-0-0-|
Db|--0-0-0-0-0-0-0-0-0-0-0-0-0-0-0-0-0-0-0-0-0-0-0-0-0-0-0-0-0-0-0-0-|
                                                                     |
Intro/verse Guitar 2 (low Distortion):                               |
Eb|------------------------------------------------------------------|
Bb|------------------------------------------------------------------|
Gb|--------------0-----------------------0---------------------------|
Db|----------3-----------------------3-------------------------------|
Ab|------------------------------------------------------------------|
Db|------------------------------------------------------------------|
                                                                     |
Intro/verse Guitar 3 (low Distortion):                               |
Eb|------------------------------------------------------------------|
Bb|------------18----------------------18--------------------18------|
Gb|--------21----------------------21--------------------21----------|
Db|------------------------------------------------------------------|
Ab|------------------------------------------------------------------|
Db|------------------------------------------------------------------|

Intro/verse Guitar 1 (Distorted & palm muted): 00:30
Eb|------------------------------------------------------------------|
Bb|------------------------------------------------------------------|
Gb|------------------------------------------------------------------|
Db|--3-3-3-3-3-3-3-3-3-3-3-3-3-3-3-3-3-3-----------------------------|
Ab|--5-5-5-5-5-5-5-5-5-5-5-5-5-5-5-5-5-5-----------------------------|
Db|--0-0-0-0-0-0-0-0-0-0-0-0-0-0-0-0-0-0-----------------------------|
                                                                     |
Intro/verse Guitar 2 (low Distortion):                               |
Eb|------------------------------------------------------------------|
Bb|------------------------------------------------------------------|
Gb|--------------0-----------------------0---------------------------|
Db|----------3-----------------------3-------------------------------|
Ab|------------------------------------------------------------------|
Db|------------------------------------------------------------------|
                                                                     |
Intro/verse Guitar 3 (low Distortion):                               |
Eb|------------------------------------------------------------------|
Bb|------------18----------------------18----------------------------|
Gb|--------21----------------------21--------------------------------|
Db|------------------------------------------------------------------|
Ab|------------------------------------------------------------------|
Db|------------------------------------------------------------------|

Pre-Chorus: 00:36 / 00:41 / 00:45 / 00:50
Eb|------------------------------------------------------------------|
Bb|---------------------------------------------------------6-6-6-6--|
Gb|---------------------------------------------------------7-7-7-7--|
Db|------------------------------------------------------------------|
Ab|------------------------------------------------------------------|
Db|--0---13--12\------0---13--12\------0---13--12\------0------------|

Chorus Guitar 1: 00:54
Eb|------------------------------------------------------------------|
Bb|--8------8------8---8---8---8-------------------------------------|
Gb|--7------7------7---7---7---7----10-----10--10--------------------|
Db|--5------5------5---5---5---5----8------8---8-----10---10---10----|
Ab|--5------5------5---5---5---5----8------8---8-----10---10---10----|
Db|--5------5------5---5---5---5----8------8---8-----10---10---10----|
                                                                     |
Chorus Guitar 2: 00:54                                               |
Eb|------------------------------------------------------------------|
Bb|------------------------------------------------------------------|
Gb|--12-----12-----12--12--12--12---10-----10--10----15---15---15----|
Db|---x------x------x---x---x---x---x------x---x------x----x----x----|
Ab|--10-----10-----10--10--10--10---8------8---8-----13---13---13----|
Db|------------------------------------------------------------------|

Chorus Continued Both Guitars: 00:59
Eb|------------------------------------------------------------------|
Bb|------------------------------------------------------------------|
Gb|------------------------------------------------------------------|
Db|------------------------------------------------------------------|
Ab|------------------------------------------------------------------|
Db|--0---13--12\------0---13--12\------0---13--12\------0---13--12\--|

Chorus Guitar 1: 01:03
Eb|------------------------------------------------------------------|
Bb|--8------8------8---8---8---8-------------------------------------|
Gb|--7------7------7---7---7---7----10-----10--10--------------------|
Db|--5------5------5---5---5---5----8------8---8-----10---10---10----|
Ab|--5------5------5---5---5---5----8------8---8-----10---10---10----|
Db|--5------5------5---5---5---5----8------8---8-----10---10---10----|
                                                                     |
Chorus Guitar 2: 01:03                                               |
Eb|------------------------------------------------------------------|
Bb|------------------------------------------------------------------|
Gb|--12-----12-----12--12--12--12---10-----10--10----15---15---15----|
Db|---x------x------x---x---x---x---x------x---x------x----x----x----|
Ab|--10-----10-----10--10--10--10---8------8---8-----13---13---13----|
Db|------------------------------------------------------------------|

Verse 2 Guitar 1 (Distorted & palm muted): 01:08
Eb|------------------------------------------------------------------|
Bb|------------------------------------------------------------------|
Gb|------------------------------------------------------------------|
Db|--3-3-3-3-3-3-3-3-3-3-3-3-3-3-3-3-3-3-3-3-3-3-3-3-3-3-3-3-3-3-3-3-|
Ab|--5-5-5-5-5-5-5-5-5-5-5-5-5-5-5-5-5-5-5-5-5-5-5-5-5-5-1-1-1-0-0-0-|
Db|--0-0-0-0-0-0-0-0-0-0-0-0-0-0-0-0-0-0-0-0-0-0-0-0-0-0-0-0-0-0-0-0-|
                                                                     |
Verse 2 Guitar 2 (low Distortion):                                   |
Eb|------------------------------------------------------------------|
Bb|------------------------------------------------------------------|
Gb|--14----------------------0-----------------------0---------------|
Db|---x------------------3-----------------------3-------------------|
Ab|--12--------------------------------------------------------------|
Db|------------------------------------------------------------------|
                                                                     |
Verse 2 Guitar 3 (low Distortion):                                   |
Eb|------------------------------------------------------------------|
Bb|----------------------------------------------------------18------|
Gb|------------------------------------------------------21----------|
Db|------------------------------------------------------------------|
Ab|------------------------------------------------------------------|
Db|------------------------------------------------------------------|

Verse 2 Guitar 1 (Distorted & palm muted): 01:19
Eb|------------------------------------------------------------------|
Bb|------------------------------------------------------------------|
Gb|------------------------------------------------------------------|
Db|--3-3-3-3-3-3-3-3-3-3-3-3-3-3-3-3-3-3-3-3-3-3-3-3-3-3-3-3-3-3-3-3-|
Ab|--5-5-5-5-5-5-5-5-5-5-5-5-5-5-5-5-5-5-5-5-5-5-5-5-5-5-1-1-1-0-0-0-|
Db|--0-0-0-0-0-0-0-0-0-0-0-0-0-0-0-0-0-0-0-0-0-0-0-0-0-0-0-0-0-0-0-0-|
                                                                     |
Verse 2 Guitar 2 (low Distortion):                                   |
Eb|------------------------------------------------------------------|
Bb|------------------------------------------------------------------|
Gb|--------------0-----------------------0---------------------------|
Db|----------3-----------------------3-------------------------------|
Ab|------------------------------------------------------------------|
Db|------------------------------------------------------------------|
                                                                     |
Verse 2 Guitar 3 (low Distortion):                                   |
Eb|------------------------------------------------------------------|
Bb|------------18----------------------18--------------------18------|
Gb|--------21----------------------21--------------------21----------|
Db|------------------------------------------------------------------|
Ab|------------------------------------------------------------------|
Db|------------------------------------------------------------------|

Verse 2 Guitar 1 (Distorted & palm muted): 01:28
Eb|------------------------------------------------------------------|
Bb|------------------------------------------------------------------|
Gb|------------------------------------------------------------------|
Db|--3-3-3-3-3-3-3-3-3-3-3-3-3-3-3-3-3-3-----------------------------|
Ab|--5-5-5-5-5-5-5-5-5-5-5-5-5-5-5-5-5-5-----------------------------|
Db|--0-0-0-0-0-0-0-0-0-0-0-0-0-0-0-0-0-0-----------------------------|
                                                                     |
Verse 2 Guitar 2 (low Distortion):                                   |
Eb|------------------------------------------------------------------|
Bb|------------------------------------------------------------------|
Gb|--------------0-----------------------0---------------------------|
Db|----------3-----------------------3-------------------------------|
Ab|------------------------------------------------------------------|
Db|------------------------------------------------------------------|
                                                                     |
Verse 2 Guitar 3 (low Distortion):                                   |
Eb|------------------------------------------------------------------|
Bb|------------18----------------------18----------------------------|
Gb|--------21----------------------21--------------------------------|
Db|------------------------------------------------------------------|
Ab|------------------------------------------------------------------|
Db|------------------------------------------------------------------|

Pre-Chorus: 01:35 / 01:39 / 01:43 / 01:48
Eb|------------------------------------------------------------------|
Bb|---------------------------------------------------------6-6-6-6--|
Gb|---------------------------------------------------------7-7-7-7--|
Db|------------------------------------------------------------------|
Ab|------------------------------------------------------------------|
Db|--0---13--12\------0---13--12\------0---13--12\------0------------|

Chorus Guitar 1: 01:53
Eb|------------------------------------------------------------------|
Bb|--8------8------8---8---8---8-------------------------------------|
Gb|--7------7------7---7---7---7----10-----10--10--------------------|
Db|--5------5------5---5---5---5----8------8---8-----10---10---10----|
Ab|--5------5------5---5---5---5----8------8---8-----10---10---10----|
Db|--5------5------5---5---5---5----8------8---8-----10---10---10----|
                                                                     |
Chorus Guitar 2: 01:53                                               |
Eb|------------------------------------------------------------------|
Bb|------------------------------------------------------------------|
Gb|--12-----12-----12--12--12--12---10-----10--10----15---15---15----|
Db|---x------x------x---x---x---x---x------x---x------x----x----x----|
Ab|--10-----10-----10--10--10--10---8------8---8-----13---13---13----|
Db|------------------------------------------------------------------|

Chorus Continued Both Guitars: 01:57
Eb|------------------------------------------------------------------|
Bb|------------------------------------------------------------------|
Gb|------------------------------------------------------------------|
Db|------------------------------------------------------------------|
Ab|------------------------------------------------------------------|
Db|--0---13--12\------0---13--12\------0---13--12\------0---13--12\--|

Chorus Guitar 1: 02:02
Eb|------------------------------------------------------------------|
Bb|--8------8------8---8---8---8-------------------------------------|
Gb|--7------7------7---7---7---7----10-----10--10--------------------|
Db|--5------5------5---5---5---5----8------8---8-----10---10---10----|
Ab|--5------5------5---5---5---5----8------8---8-----10---10---10----|
Db|--5------5------5---5---5---5----8------8---8-----10---10---10----|
                                                                     |
Chorus Guitar 2: 02:02                                               |
Eb|------------------------------------------------------------------|
Bb|------------------------------------------------------------------|
Gb|--12-----12-----12--12--12--12---10-----10--10----15---15---15----|
Db|---x------x------x---x---x---x---x------x---x------x----x----x----|
Ab|--10-----10-----10--10--10--10---8------8---8-----13---13---13----|
Db|------------------------------------------------------------------|

Chorus Continued Both Guitars: 02:06
Eb|------------------------------------------------------------------|
Bb|------------------------------------------------------------------|
Gb|------------------------------------------------------------------|
Db|------------------------------------------------------------------|
Ab|------------------------------------------------------------------|
Db|--0---13--12\------0---13--12\------0---13--12\------0---13--12\--|

Chorus Guitar 1: 02:11
Eb|------------------------------------------------------------------|
Bb|--8------8------8---8---8---8-------------------------------------|
Gb|--7------7------7---7---7---7----10-----10--10--------------------|
Db|--5------5------5---5---5---5----8------8---8-----10---10---10----|
Ab|--5------5------5---5---5---5----8------8---8-----10---10---10----|
Db|--5------5------5---5---5---5----8------8---8-----10---10---10----|
                                                                     |
Chorus Guitar 2: 02:11                                               |
Eb|------------------------------------------------------------------|
Bb|------------------------------------------------------------------|
Gb|--12-----12-----12--12--12--12---10-----10--10----15---15---15----|
Db|---x------x------x---x---x---x---x------x---x------x----x----x----|
Ab|--10-----10-----10--10--10--10---8------8---8-----13---13---13----|
Db|------------------------------------------------------------------|

Bridge Guitar 2:15
Eb|------------------------------------------------------------------|
Bb|-------------------------------------------10---------------------|
Gb|--14---------------------------------------7----------------------|
Db|---x---------------------------------------0----------------------|
Ab|--12---------------------------------------0----------------------|
Db|-------------------------------------------0----------------------|

Bridge Guitars 1 and 2:33
Eb|------------------------------------------------------------------|
Bb|------------------------------------------------------------------|
Gb|------------------------------------------------------------------|
Db|--\---------------------------------------------------------------|
Ab|--\----------------------3---------------------------0--3-5-6-----|
Db|--\-----0--3--0--1--0-------1--3--0---0--1--0--3--5---------------|

Bridge Guitars 1 and 2:38
Eb|------------------------------------------------------------------|
Bb|------------------------------------------------------------------|
Gb|------------------------------------------------------------------|
Db|------------------------------------------------------------------|
Ab|-------------------3---------------------------0--3-5-6-----------|
Db|--0--3--0--1--0-------1--3--0---0--1--0--3--5---------------------|

Bridge Guitars 1 and 2:42
Eb|------------------------------------------------------------------|
Bb|------------------------------------------------------------------|
Gb|------------------------------------------------------------------|
Db|------------------------------------------------------------------|
Ab|-------------------3---------------------------0--3-5-6-----------|
Db|--0--3--0--1--0-------1--3--0---0--1--0--3--5---------------------|

Bridge Guitars 1 and 2:47
Eb|------------------------------------------------------------------|
Bb|------------------------------------------------------------------|
Gb|------------------------------------------------------------------|
Db|------------------------------------------------------------------|
Ab|-------------------3---------------------------0--3-5-6-----------|
Db|--0--3--0--1--0-------1--3--0---0--1--0--3--5---------------------|

Chorus 2 Guitar 1: 02:51 / 03:00 / 03:09 / 03:18
Eb|------------------------------------------------------------------|
Bb|--8------8------8---8---8---8-------------------------------------|
Gb|--7------7------7---7---7---7----10-----10--10--------------------|
Db|--5------5------5---5---5---5----8------8---8-----10---10---10----|
Ab|--5------5------5---5---5---5----8------8---8-----10---10---10----|
Db|--5------5------5---5---5---5----8------8---8-----10---10---10----|
                                                                     |
Chorus 2 Guitar 2: 02:51                                             |
Eb|------------------------------------------------------------------|
Bb|------------------------------------------------------------------|
Gb|--12-----12-----12--12--12--12---10-----10--10----15---15---15----|
Db|---x------x------x---x---x---x---x------x---x------x----x----x----|
Ab|--10-----10-----10--10--10--10---8------8---8-----13---13---13----|
Db|------------------------------------------------------------------|
                                                                     |
Chorus 2 Guitar 3 (low Distortion):                                  |
Eb|------------------------------------------------------------------|
Bb|------------------------18----------------------------------------|
Gb|--------------------21------21------------------------------------|
Db|------------------------------------------------------------------|
Ab|------------------------------------------------------------------|
Db|------------------------------------------------------------------|

Chorus Continued Both Guitars: 02:56 / 03:05 / 03:14
Eb|------------------------------------------------------------------|
Bb|------------------------------------------------------------------|
Gb|------------------------------------------------------------------|
Db|------------------------------------------------------------------|
Ab|------------------------------------------------------------------|
Db|--0---13--12\------0---13--12\------0---13--12\------0---13--12\--|

Outro Guitar 1 (Distorted & palm muted): 03:23
Eb|------------------------------------------------------------------|
Bb|------------------------------------------------------------------|
Gb|------------------------------------------------------------------|
Db|--3-3-3-3-3-3-3-3-3-3-3-------------------------------------------|
Ab|--5-5-5-5-5-5-5-5-5-5-5-------------------------------------------|
Db|--0-0-0-0-0-0-0-0-0-0-0-------------------------------------------|
                                                                     |
Outro Guitar 2 (low Distortion):                                     |
Eb|------------------------------------------------------------------|
Bb|------------------------------------------------------------------|
Gb|--14----------------------0---------------------------------------|
Db|---x------------------3-------------------------------------------|
Ab|--12--------------------------------------------------------------|
Db|------------------------------------------------------------------|

Finished!





Comments


Popular 10 Years tabs & chords
So Long Goodbye 5 Chords
Empires 1 Tabs
Fade Into The Ocean Tabs
Fault Line 1 Tabs
Running In Place Tabs
Russian Roulette 2 Tabs
Silhouette Of A Life Intro 1 Tabs
Through The Iris Tabs
Waking Up 2 Tabs
Wasteland 11 Tabs


Song lyrics



↑ Back to top | Tablatures and chords are parodies/interpretations of the original songs. You may use it for private study, scholarship, research or language learning purposes only
© 2014 AZChords.com Contact us | Privacy policy | DMCA | Add/correct tabs | Request tabs | Top 50 tabs