>
 >
Actions And Motives

Actions And Motives Guitar Tabs

10 Years - Actions And Motives chords, tabs, tablatures, lyrics

Guitar lessons | Add/correct | Request | Top 50 tabs Artists:  A B C D E F G H I J K L M N O P Q R S T U V W X Y Z 0-9

Actions And Motives Guitar Tabs – 10 Years

CD, Sheet music, Poster

Do you like Actions And Motives? Share with your friends now
Bass TabsTabsTabs v2
10 Years
Actions & Motives
Tuning B F# B E G# C#

Legend
x-donít play            (#)-optionoal                      p-pull off
h-hammer on             (x)-play note/chord amount         /-slide up

Intro Guitar 1 00:00
C#|-------------------------------------------------------------------|
G#|--------------------------------------------10---------------------|
 E|--9--------------------7--------------------9----------------------|
 B|--7--------------------7--------------------7----------------------|
F#|--8--------------------7--------------------0----------------------|
 B|-------------------------------------------------------------------|

Intro Guitar 1 00:07
C#|--------------------------------------------0----------------------|
G#|--------------------------------------------x----------------------|
 E|--9--------------------7--------------------9----------------------|
 B|--7--------------------7--------------------7----------------------|
F#|--8--------------------7--------------------0----------------------|
 B|-------------------------------------------------------------------|

Verse 1 Guitar 1 00:13
C#|-------------------------------------------------------------------|
G#|-------------------------------------------------------------------|
 E|--9--------------------7--------------------9----------------------|
 B|--7--------------------7--------------------7----------------------|
F#|--8--------------------7--------------------0----------------------|
 B|-------------------------------------------------------------------|
                                                                      |
Verse 1 Guitar 2 00:13                                                |
C#|-------------------------------------------------------------------|
G#|------------------8---8---------------------10---------------------|
 E|------9-------9-----------------------------9----------------------|
 B|--7-------7---------------------------------7----------------------|
F#|-------------------------------------------------------------------|
 B|-------------------------------------------------------------------|

Verse 1 Guitar 1 00:19
C#|--------------------------------------------0----------------------|
G#|--------------------------------------------x----------------------|
 E|--9--------------------7--------------------9----------------------|
 B|--7--------------------7--------------------7----------------------|
F#|--8--------------------7-------------------------------------------|
 B|-------------------------------------------------------------------|
                                                                      |
Verse 1 Guitar 2 00:19                                                |
C#|-------------------------------------------------------------------|
G#|------------------8------------------------------------------------|
 E|------9-------9----------------------------------------------------|
 B|--7-------7--------------------------------------------------------|
F#|-------------------------------------------------------------------|
 B|-------------------------------------------------------------------|

Verse 1 Guitar 1 00:25
C#|-------------------------------------------------------------------|
G#|--------------------------------------------10---------------------|
 E|--9--------------------7--------------------9----------------------|
 B|--7--------------------7--------------------7----------------------|
F#|--8--------------------7--------------------0----------------------|
 B|-------------------------------------------------------------------|
                                                                      |
Verse 1 Guitar 2 00:25                                                |
C#|----------------8-------------------------------10-12-----10-------|
G#|------8------10---10-------------------8--------------13-----12----|
 E|----9---9--9------------------------9-----9------------------------|
 B|--7------------------------------7---------------------------------|
F#|-------------------------------------------------------------------|
 B|-------------------------------------------------------------------|

Verse 1 Guitar 1 00:32
C#|--------------------------------------------0----------------------|
G#|--------------------------------------------x----------------------|
 E|--9--------------------7--------------------9----------------------|
 B|--7--------------------7--------------------7----------------------|
F#|--8--------------------7-------------------------------------------|
 B|-------------------------------------------------------------------|
                                                                      |
Verse 1 Guitar 2 00:32                                                |
C#|----------------8-------------------------------10-12-----10-------|
G#|------8------10---10-------------------8--------------13-----12----|
 E|----9---9--9------------------------9-----9------------------------|
 B|--7------------------------------7---------------------------------|
F#|-------------------------------------------------------------------|
 B|-------------------------------------------------------------------|

Pre-Chorus 1 Guitar 1 00:38
C#|-------------------------------------------------------------------|
G#|--------------------------------------------10---------------------|
 E|--9--------------------7--------------------9----------------------|
 B|--7--------------------7--------------------7----------------------|
F#|--8--------------------7--------------------0----------------------|
 B|-------------------------------------------------------------------|
                                                                      |
Pre-Chorus 1 Guitar 2 00:38                                           |
C#|-------------------------------------------------------------------|
G#|--13-------------------12-------------------10---------------------|
 E|-------------------------------------------------------------------|
 B|-------------------------------------------------------------------|
F#|-------------------------------------------------------------------|
 B|-------------------------------------------------------------------|

Pre-Chorus 1 Guitar 1 00:45
C#|-------------------------------------------------------------------|
G#|-------------------------------------------------------------------|
 E|--9--------------------7-------------------------------------------|
 B|--7--------------------7-------------------------------------------|
F#|--8--------------------7-------------------------------------------|
 B|-------------------------------------------------------------------|
                                                                      |
Pre-Chorus 1 Guitar 2 00:45                                           |
C#|-------------------------------------------------------------------|
G#|-------------------------------------------------------------------|
 E|--10---------9---------7---------5---------------------------------|
 B|-------------------------------------------------------------------|
F#|-------------------------------------------------------------------|
 B|-------------------------------------------------------------------|

Chorus Guitar 1 00:48
C#|-------------------------------------------------------------------|
G#|-------------------------------------------------------------------|
 E|-------------------------------------------------------------------|
 B|--7-7-777-5-h7-77-7--5h7-7--3-3-3-3--2-2-2-2--0-0-0-0--10-10-10-10-|
F#|--7-7-777-5-h7-77-7--5h7-7--3-3-3-3--2-2-2-2--0-0-0-0--10-10-10-10-|
 B|--7-7-777-5-h7-77-7--5h7-7--3-3-3-3--2-2-2-2--0-0-0-0--10-10-10-10-|
                                                                      |
Chorus Guitar 2 00:48                                                 |
C#|-------------------------------------------------------------------|
G#|----------------------------15151515-13131313-12121212-10-10-10-10-|
 E|--14|                     |----------------------------------------|
 B|--14|   strike 16 times   |----------------------------------------|
F#|-------------------------------------------------------------------|
 B|-------------------------------------------------------------------|

Chorus Guitar 1 00:54
C#|-------------------------------------------------------------------|
G#|-------------------------------------------------------------------|
 E|-------------------------------------------------------------------|
 B|--7-7-777-5-h7-77-7--5h7-7---12121212--10101010--9-9-9-9--10101010-|
F#|--7-7-777-5-h7-77-7--5h7-7---12121212--10101010--9-9-9-9--10101010-|
 B|--7-7-777-5-h7-77-7--5h7-7---12121212--10101010--9-9-9-9--10101010-|
                                                                      |
Chorus Guitar 2 00:54                                                 |
C#|----------------------------------------------------------15151515-|
G#|--------------12121212-131313-15151515-13131313--15151515----------|
 E|-12121212-9(x8)----------------------------------------------------|
 B|-------------------------------------------------------------------|
F#|-------------------------------------------------------------------|
 B|-------------------------------------------------------------------|

Chorus Guitar 1 01:01
C#|-------------------------------------------------------------------|
G#|-------------------------------------------------------------------|
 E|-------------------------------------------------------------------|
 B|--7-7-777-5-h7-77-7--5h7-7--3-3-3-3--2-2-2-2--0-0-0-0--10-10-10-10-|
F#|--7-7-777-5-h7-77-7--5h7-7--3-3-3-3--2-2-2-2--0-0-0-0--10-10-10-10-|
 B|--7-7-777-5-h7-77-7--5h7-7--3-3-3-3--2-2-2-2--0-0-0-0--10-10-10-10-|
                                                                      |
Chorus Guitar 2 01:01                                                 |
C#|-------------121212-15151515---------------------------------------|
G#|--13131313-10---------------17171717-15151515----------------------|
 E|----------------------------------------------16161616-14-14-14-14-|
 B|-------------------------------------------------------------------|
F#|-------------------------------------------------------------------|
 B|-------------------------------------------------------------------|

Chorus Guitar 1 01:07
C#|-------------------------------------------------------------------|
G#|-------------------------------------------------------------------|
 E|-------------------------------------------------------------------|
 B|--7-7-777-5-h7-77-7--5h7-7----12121212--10101010--9-9-9-9--10101010|
F#|--7-7-777-5-h7-77-7--5h7-7----12121212--10101010--9-9-9-9--10101010|
 B|--7-7-777-5-h7-77-7--5h7-7----12121212--10101010--9-9-9-9--10101010|
                                                                      |
Chorus Guitar 2 01:07                                                 |
C#|-----------------------------------------------------------15151515|
G#|--------------12121212-131313-15151515--13131313--15151515---------|
 E|-12121212-9(x8)----------------------------------------------------|
 B|-------------------------------------------------------------------|
F#|-------------------------------------------------------------------|
 B|-------------------------------------------------------------------|

Post Chorus Guitar 1 01:13
C#|-------------------------------------------------------------------|
G#|-------------------------------------------------------------------|
 E|-------------------------------------------------------------------|
 B|--7----------------------------------------------------------------|
F#|--7----------------------------------------------------------------|
 B|--7----------------------------------------------------------------|
                                                                      |
Post Chorus Guitar 2 01:13                                            |
C#|-------------------------------------------------------------------|
G#|--13---------------------------------------------------------------|
 E|-------------------------------------------------------------------|
 B|-------------------------------------------------------------------|
F#|-------------------------------------------------------------------|
 B|-------------------------------------------------------------------|

Verse 2 Guitar 1 01:16
C#|-------------------------------------------------------------------|
G#|-------------------------------------------------------------------|
 E|--9--------------------7--------------------9----------------------|
 B|--7--------------------7--------------------7----------------------|
F#|--8--------------------7--------------------0----------------------|
 B|-------------------------------------------------------------------|
                                                                      |
Verse 2 Guitar 2 01:16                                                |
C#|-------------------------------------------------------------------|
G#|------------------8---8---------------------10---------------------|
 E|------9-------9-----------------------------9----------------------|
 B|--7-------7---------------------------------7----------------------|
F#|-------------------------------------------------------------------|
 B|-------------------------------------------------------------------|

Verse 2 Guitar 1 01:23
C#|--------------------------------------------0----------------------|
G#|--------------------------------------------x----------------------|
 E|--9--------------------7--------------------9----------------------|
 B|--7--------------------7--------------------7----------------------|
F#|--8--------------------7-------------------------------------------|
 B|-------------------------------------------------------------------|
                                                                      |
Verse 2 Guitar 2 01:23                                                |
C#|-------------------------------------------------------------------|
G#|------------------8------------------------------------------------|
 E|------9-------9----------------------------------------------------|
 B|--7-------7--------------------------------------------------------|
F#|-------------------------------------------------------------------|
 B|-------------------------------------------------------------------|

Verse 2 Guitar 1 01:29
C#|-------------------------------------------------------------------|
G#|--------------------------------------------10---------------------|
 E|--9--------------------7--------------------9----------------------|
 B|--7--------------------7--------------------7----------------------|
F#|--8--------------------7--------------------0----------------------|
 B|-------------------------------------------------------------------|
                                                                      |
Verse 2 Guitar 2 01:29                                                |
C#|----------------8-------------------------------10-12-----10-------|
G#|------8------10---10-------------------8--------------13-----12----|
 E|----9---9--9------------------------9-----9------------------------|
 B|--7------------------------------7---------------------------------|
F#|-------------------------------------------------------------------|
 B|-------------------------------------------------------------------|

Verse 2 Guitar 1 01:36
C#|--------------------------------------------0----------------------|
G#|--------------------------------------------x----------------------|
 E|--9--------------------7--------------------9----------------------|
 B|--7--------------------7--------------------7----------------------|
F#|--8--------------------7-------------------------------------------|
 B|-------------------------------------------------------------------|
                                                                      |
Verse 2 Guitar 2 01:36                                                |
C#|----------------8-------------------------------10-12-----10-------|
G#|------8------10---10-------------------8--------------13-----12----|
 E|----9---9--9------------------------9-----9------------------------|
 B|--7------------------------------7---------------------------------|
F#|-------------------------------------------------------------------|
 B|-------------------------------------------------------------------|

Pre-Chorus Guitar 1 01:42
C#|-------------------------------------------------------------------|
G#|--------------------------------------------10---------------------|
 E|--9--------------------7--------------------9----------------------|
 B|--7--------------------7--------------------7----------------------|
F#|--8--------------------7--------------------0----------------------|
 B|-------------------------------------------------------------------|
                                                                      |
Pre-Chorus Guitar 2 01:42                                             |
C#|-------------------------------------------------------------------|
G#|--13-------------------12-------------------10---------------------|
 E|-------------------------------------------------------------------|
 B|-------------------------------------------------------------------|
F#|-------------------------------------------------------------------|
 B|-------------------------------------------------------------------|

Pre-Chorus Guitar 1 01:48
C#|-------------------------------------------------------------------|
G#|-------------------------------------------------------------------|
 E|--9--------------------7-------------------------------------------|
 B|--7--------------------7-------------------------------------------|
F#|--8--------------------7-------------------------------------------|
 B|-------------------------------------------------------------------|
                                                                      |
Pre-Chorus Guitar 2 01:48                                             |
C#|-------------------------------------------------------------------|
G#|-------------------------------------------------------------------|
 E|--10---------9---------7---------5---------------------------------|
 B|-------------------------------------------------------------------|
F#|-------------------------------------------------------------------|
 B|-------------------------------------------------------------------|

Chorus Guitar 1 01:52
C#|-------------------------------------------------------------------|
G#|-------------------------------------------------------------------|
 E|-------------------------------------------------------------------|
 B|--7-7-777-5-h7-77-7--5h7-7--3-3-3-3--2-2-2-2--0-0-0-0--10-10-10-10-|
F#|--7-7-777-5-h7-77-7--5h7-7--3-3-3-3--2-2-2-2--0-0-0-0--10-10-10-10-|
 B|--7-7-777-5-h7-77-7--5h7-7--3-3-3-3--2-2-2-2--0-0-0-0--10-10-10-10-|
                                                                      |
Chorus Guitar 2 01:52                                                 |
C#|-------------------------------------------------------------------|
G#|----------------------------15151515-13131313-12121212-10-10-10-10-|
 E|--14|                     |----------------------------------------|
 B|--14|   strike 16 times   |----------------------------------------|
F#|-------------------------------------------------------------------|
 B|-------------------------------------------------------------------|

Chorus Guitar 1 01:58
C#|-------------------------------------------------------------------|
G#|-------------------------------------------------------------------|
 E|-------------------------------------------------------------------|
 B|--7-7-777-5-h7-77-7--5h7-7----12121212--10101010--9-9-9-9--10101010|
F#|--7-7-777-5-h7-77-7--5h7-7----12121212--10101010--9-9-9-9--10101010|
 B|--7-7-777-5-h7-77-7--5h7-7----12121212--10101010--9-9-9-9--10101010|
                                                                      |
Chorus Guitar 2 01:58                                                 |
C#|-----------------------------------------------------------15151515|
G#|--------------12121212-131313-15151515--13131313--15151515---------|
 E|-12121212-9(x8)----------------------------------------------------|
 B|-------------------------------------------------------------------|
F#|-------------------------------------------------------------------|
 B|-------------------------------------------------------------------|

Chorus Guitar 1 02:04
C#|-------------------------------------------------------------------|
G#|-------------------------------------------------------------------|
 E|-------------------------------------------------------------------|
 B|--7-7-777-5-h7-77-7--5h7-7--3-3-3-3--2-2-2-2--0-0-0-0--10-10-10-10-|
F#|--7-7-777-5-h7-77-7--5h7-7--3-3-3-3--2-2-2-2--0-0-0-0--10-10-10-10-|
 B|--7-7-777-5-h7-77-7--5h7-7--3-3-3-3--2-2-2-2--0-0-0-0--10-10-10-10-|
                                                                      |
Chorus Guitar 2 02:04                                                 |
C#|-------------121212-15151515---------------------------------------|
G#|--13131313-10---------------17171717-15151515----------------------|
 E|----------------------------------------------16161616-14-14-14-14-|
 B|-------------------------------------------------------------------|
F#|-------------------------------------------------------------------|
 B|-------------------------------------------------------------------|

Chorus Guitar 1 02:11
C#|-------------------------------------------------------------------|
G#|-------------------------------------------------------------------|
 E|-------------------------------------------------------------------|
 B|--7-7-777-5-h7-77-7--5h7-7----12121212--10101010--9-9-9-9--10101010|
F#|--7-7-777-5-h7-77-7--5h7-7----12121212--10101010--9-9-9-9--10101010|
 B|--7-7-777-5-h7-77-7--5h7-7----12121212--10101010--9-9-9-9--10101010|
                                                                      |
Chorus Guitar 2 02:11                                                 |
C#|-----------------------------------------------------------15151515|
G#|--------------12121212-131313-15151515--13131313--15151515---------|
 E|-12121212-9(x8)----------------------------------------------------|
 B|-------------------------------------------------------------------|
F#|-------------------------------------------------------------------|
 B|-------------------------------------------------------------------|

Bridge Guitar 1 02:17
C#|-------------------------------------------------------------------|
G#|-------------------------------------------------------------------|
 E|-------------------------------------------------------------------|
 B|--7-7--0--7-7--0--5-5--0--5-5--0--7-7--0--7-7--0--5-5-5-5-5-5-5-5--|
F#|--7-7--0--7-7--0--5-5--0--5-5--0--7-7--0--7-7--0--5-5-5-5-5-5-5-5--|
 B|--7-7--0--7-7--0--5-5--0--5-5--0--7-7--0--7-7--0--5-5-5-5-5-5-5-5--|

Bridge Guitar 1 02:23
C#|-------------------------------------------------------------------|
G#|-------------------------------------------------------------------|
 E|-------------------------------------------------------------------|
 B|--7-7--0--7-7--0--5-5--0--5-5--0--7-7--0--7-7--0--5-5-5-5-5-5-5-5--|
F#|--7-7--0--7-7--0--5-5--0--5-5--0--7-7--0--7-7--0--5-5-5-5-5-5-5-5--|
 B|--7-7--0--7-7--0--5-5--0--5-5--0--7-7--0--7-7--0--5-5-5-5-5-5-5-5--|

Bridge Guitar 1 02:30
C#|-------------------------------------------------------------------|
G#|-------------------------------------------------------------------|
 E|-------------------------------------------------------------------|
 B|--7-7--0--7-7--0--5-5--0--5-5--0--7-7--0--7-7--0--5-5-5-5-5-5-5-5--|
F#|--7-7--0--7-7--0--5-5--0--5-5--0--7-7--0--7-7--0--5-5-5-5-5-5-5-5--|
 B|--7-7--0--7-7--0--5-5--0--5-5--0--7-7--0--7-7--0--5-5-5-5-5-5-5-5--|
                                                                      |
Bridge Guitar 2 02:30 (with delay)                                    |
C#|-------------------------------------------------------------------|
G#|--13--------------13h15p13-12-----13--------------15---/---20------|
 E|-------------------------------------------------------------------|
 B|-------------------------------------------------------------------|
F#|-------------------------------------------------------------------|
 B|-------------------------------------------------------------------|

Bridge Guitar 1 02:36
C#|-------------------------------------------------------------------|
G#|-------------------------------------------------------------------|
 E|-------------------------------------------------------------------|
 B|--7-7--0--7-7--0--5-5--0--5-5--0--7-7--0--7-7--0--5-5-5-5-5-5-5-5--|
F#|--7-7--0--7-7--0--5-5--0--5-5--0--7-7--0--7-7--0--5-5-5-5-5-5-5-5--|
 B|--7-7--0--7-7--0--5-5--0--5-5--0--7-7--0--7-7--0--5-5-5-5-5-5-5-5--|
                                                                      |
Bridge Guitar 2 02:36 (with delay)                                    |
C#|-------------------------------------------------------------------|
G#|--13--------------13h15p13-12-----13--------------15---/---20------|
 E|------------------------------------------------------------x------|
 B|-----------------------------------------------------------17------|
F#|-------------------------------------------------------------------|
 B|-------------------------------------------------------------------|

Post Bridge Guitar 1 02:43 (feedback)
C#|-------------------------------------------------------------------|
G#|-------------------------------------------------------------------|
 E|-------------------------------------------------------------------|
 B|-------------------------------------------------------------------|
F#|-------------------------------------------------------------------|
 B|-------------------------------------------------------------------|
                                                                      |
Post Bridge Guitar 2 02:43                                            |
C#|-------------------------------------------------------------------|
G#|--(20)-------------------------------------------------------------|
 E|----x--------------------------------------------------------------|
 B|--(17)-------------------------------------------------------------|
F#|-------------------------------------------------------------------|
 B|-------------------------------------------------------------------|

Chorus Guitar 1 02:45
C#|-------------------------------------------------------------------|
G#|-------------------------------------------------------------------|
 E|-------------------------------------------------------------------|
 B|--7-7-777-5-h7-77-7--5h7-7--12121212--10101010--9-9-9-9--10101010--|
F#|--7-7-777-5-h7-77-7--5h7-7--12121212--10101010--9-9-9-9--10101010--|
 B|--7-7-777-5-h7-77-7--5h7-7--12121212--10101010--9-9-9-9--10101010--|
                                                                      |
Chorus Guitar 2 02:45                                                 |
C#|---------------------------------------------------------15151515--|
G#|----------------------------15151515--13131313--15151515-----------|
 E|--14|                     |----------------------------------------|
 B|--14|   strike 16 times   |----------------------------------------|
F#|-------------------------------------------------------------------|
 B|-------------------------------------------------------------------|

Chorus Guitar 1 02:52      
C#|-------------------------------------------------------------------|
G#|-------------------------------------------------------------------|
 E|-------------------------------------------------------------------|
 B|--7-7-777-5-h7-77-7--5h7-7--3-3-3-3--2-2-2-2--0-0-0-0--10-10-10-10-|
F#|--7-7-777-5-h7-77-7--5h7-7--3-3-3-3--2-2-2-2--0-0-0-0--10-10-10-10-|
 B|--7-7-777-5-h7-77-7--5h7-7--3-3-3-3--2-2-2-2--0-0-0-0--10-10-10-10-|
                                                                      |
Chorus Guitar 2 02:52                                                 |
C#|-------------121212-15151515---------------------------------------|
G#|--13131313-10---------------17171717-15151515----------------------|
 E|----------------------------------------------16161616-14-14-14-14-|
 B|-------------------------------------------------------------------|
F#|-------------------------------------------------------------------|
 B|-------------------------------------------------------------------|

Chorus Guitar 1 02:58
C#|-------------------------------------------------------------------|
G#|-------------------------------------------------------------------|
 E|-------------------------------------------------------------------|
 B|--7-7-777-5-h7-77-7--5h7-7----12121212--10101010--9---9-----7------|
F#|--7-7-777-5-h7-77-7--5h7-7----12121212--10101010--9---9-----7------|
 B|--7-7-777-5-h7-77-7--5h7-7----12121212--10101010--9---9-----7------|
                                                                      |
Chorus Guitar 2 02:58                                                 |
C#|------------------------------------------------------------15-----|
G#|--------------12121212-131313-15151515--13131313--15151515---------|
 E|-12121212-9(x8)----------------------------------------------------|
 B|-------------------------------------------------------------------|
F#|-------------------------------------------------------------------|
 B|-------------------------------------------------------------------|

Bridge Guitar 1 03:05
C#|-------------------------------------------------------------------|
G#|-------------------------------------------------------------------|
 E|-------------------------------------------------------------------|
 B|--7-7--0--7-7--0--5-5--0--5-5--0--7-7--0--7-7--0--5-5-5-5-5-5-5-5--|
F#|--7-7--0--7-7--0--5-5--0--5-5--0--7-7--0--7-7--0--5-5-5-5-5-5-5-5--|
 B|--7-7--0--7-7--0--5-5--0--5-5--0--7-7--0--7-7--0--5-5-5-5-5-5-5-5--|
                                                                      |
Bridge Guitar 2 03:05 (with delay)                                    |
C#|-------------------------------------------------------------------|
G#|--13--------------13h15p13-12-----13--------------15---/---20------|
 E|-------------------------------------------------------------------|
 B|-------------------------------------------------------------------|
F#|-------------------------------------------------------------------|
 B|-------------------------------------------------------------------|

Bridge Guitar 1 03:11
C#|-------------------------------------------------------------------|
G#|-------------------------------------------------------------------|
 E|-------------------------------------------------------------------|
 B|--7-7--0--7-7--0--5-5--0--5-5--0--7-7--0--7-7--0--5-5-5-5-5--------|
F#|--7-7--0--7-7--0--5-5--0--5-5--0--7-7--0--7-7--0--5-5-5-5-5--------|
 B|--7-7--0--7-7--0--5-5--0--5-5--0--7-7--0--7-7--0--5-5-5-5-5--------|
                                                                      |
Bridge Guitar 2 03:11 (with delay)                                    |
C#|-------------------------------------------------------------------|
G#|--13--------------13h15p13-12-----13--------------15---/---20------|
 E|------------------------------------------------------------x------|
 B|-----------------------------------------------------------17------|
F#|-------------------------------------------------------------------|
 B|-------------------------------------------------------------------|

Finished!





Comments


Popular 10 Years tabs & chords
So Long Goodbye 1 Chords
So Long Goodbye 4 Chords
Alabama Tabs
All White Tabs
Cast It Out 1 Tabs
Proud Of You Tabs
Rest Tabs
Waking Up Tabs
Wasteland 11 Tabs
When Will You Breathe 1 Tabs


Song lyrics



↑ Back to top | Tablatures and chords are parodies/interpretations of the original songs. You may use it for private study, scholarship, research or language learning purposes only
© 2014 AZChords.com Contact us | Privacy policy | DMCA | Add/correct tabs | Request tabs | Top 50 tabs