» » »

10 Years, Actions And Motives Bass tabs (ver.1)

Artists:  A B C D E F G H I J K L M N O P Q R S T U V W X Y Z # 

Actions And Motives Bass tabs (ver.1)

10 Years Tabs
 Rating:
4.4/5 (7 votes)
Actions And Motives lessons Tabs too difficult? Try these video lessons and learn fast
                10 Years
Actions & Motives
Tuning Db Ab Db Gb

Legend
/-slide up                          h-hammer on

I watched a 10 Years studio update and Lewis plays the bass in Drop Db
but the eletric guitars are played in Drop B.

Intro: 00:00
Gb|---------------------------------------------------------------------------|
Db|---------------------------------------------------------------------------|
Ab|--6-6-6-6--5-5-5-5--3-3-3-3-/13-13-13-13--101010101010101010101010101010---|
Db|---------------------------------------------------------------------------|

Gb|---------------------------------------------------------------------------|
Db|----------------------------------------------------------1212----1212-----|
Ab|--6-6-6-6--5-5-5-5--3-3-3-3-/13-13-13-13--1010101010101010----1010----10---|
Db|---------------------------------------------------------------------------|

Verse 1 00:13
Gb|---------------------------------------------------------------------------|
Db|---------------------------------------------------------------------------|
Ab|--6-6-6-6--5-5-5-5--3-3-3-3-/13-13-13-13--101010101010101010101010101010---|
Db|---------------------------------------------------------------------------|

Gb|---------------------------------------------------------------------------|
Db|---------------------------------------------------------------------------|
Ab|--6-6-6-6--5-5-5-5--3-3-3-3-/13-13-13-13--101010101010101010101010101010---|
Db|---------------------------------------------------------------------------|

Gb|---------------------------------------------------------------------------|
Db|---------------------------------------------------------------------------|
Ab|--6-6-6-6--5-5-5-5--3-3-3-3-/13-13-13-13--101010101010101010101010101010---|
Db|---------------------------------------------------------------------------|

Gb|---------------------------------------------------------------------------|
Db|---------------------------------------------------------------------------|
Ab|--6-6-6-6--5-5-5-5--3-3-3-3-/13-13-13-13--101010101010101010101010101010---|
Db|---------------------------------------------------------------------------|

Pre Chorus 00:38
Gb|---------------------------------------------------------------------------|
Db|---------------------------------------------------------------------------|
Ab|--6--------5--------3------------------------------------------------------|
Db|------------------------------------------5--------------------------------|

Gb|---------------------------------------------------------------------------|
Db|---------------------------------------------------------------------------|
Ab|--6-6-6-6--5-5-5-5--3-3-3-3------------------------------------------------|
Db|-----------------------------8--8--8--8------------------------------------|

Chorus 00:48
Gb|---------------------------------------------------------------------------|
Db|---------------------------------------------------------------------------|
Ab|------------------------------6-6-6-6---5-5-5-5---3-3-3-3------------------|
Db|--5-5-555-3-h5-55-5--3h5-5----------------------------------8-8-8-8--------|

Chorus 00:54
Gb|---------------------------------------------------------------------------|
Db|---------------------------------------------------------------------------|
Ab|---------------------------------------------------------------------------|
Db|--5-5-555-3-h5-55-5--3h5-5----10101010--8-8-8-8---7-7-7-7---8-8-8-8--------|

Chorus 01:01
Gb|---------------------------------------------------------------------------|
Db|---------------------------------------------------------------------------|
Ab|------------------------------6-6-6-6---5-5-5-5---3-3-3-3------------------|
Db|--5-5-555-3-h5-55-5--3h5-5----------------------------------8-8-8-8--------|

Chorus 01:07
Gb|---------------------------------------------------------------------------|
Db|---------------------------------------------------------------------------|
Ab|---------------------------------------------------------------------------|
Db|--5-5-555-3-h5-55-5--3h5-5----10101010--8-8-8-8---7-7-7-7---8-8-8-8--------|

Post Chorus 01:13
Gb|---------------------------------------------------------------------------|
Db|---------------------------------------------------------------------------|
Ab|---------------------------------------------------------------------------|
Db|--5------------------------------------------------------------------------|

Verse 2 01:16
Gb|---------------------------------------------------------------------------|
Db|---------------------------------------------------------------------------|
Ab|--6-6-6-6--5-5-5-5--3-3-3-3-/13-13-13-13--101010101010101010101010101010---|
Db|---------------------------------------------------------------------------|

Gb|---------------------------------------------------------------------------|
Db|---------------------------------------------------------------------------|
Ab|--6-6-6-6--5-5-5-5--3-3-3-3-/13-13-13-13--101010101010101010101010101010---|
Db|---------------------------------------------------------------------------|

Gb|---------------------------------------------------------------------------|
Db|---------------------------------------------------------------------------|
Ab|--6-6-6-6--5-5-5-5--3-3-3-3-/13-13-13-13--101010101010101010101010101010---|
Db|---------------------------------------------------------------------------|

Gb|---------------------------------------------------------------------------|
Db|---------------------------------------------------------------------------|
Ab|--6-6-6-6--5-5-5-5--3-3-3-3-/13-13-13-13--101010101010101010101010101010---|
Db|---------------------------------------------------------------------------|

Pre Chorus 01:42
Gb|---------------------------------------------------------------------------|
Db|---------------------------------------------------------------------------|
Ab|--6--------5--------3------------------------------------------------------|
Db|-----------------------------8------------5--------------------------------|

Gb|---------------------------------------------------------------------------|
Db|---------------------------------------------------------------------------|
Ab|--6-6-6-6--5-5-5-5--3-3-3-3------------------------------------------------|
Db|-----------------------------8--8--8--8------------------------------------|

Chorus 01:52
Gb|---------------------------------------------------------------------------|
Db|---------------------------------------------------------------------------|
Ab|------------------------------6-6-6-6---5-5-5-5---3-3-3-3------------------|
Db|--5-5-555-3-h5-55-5--3h5-5----------------------------------8-8-8-8--------|

Chorus 01:58
Gb|---------------------------------------------------------------------------|
Db|---------------------------------------------------------------------------|
Ab|---------------------------------------------------------------------------|
Db|--5-5-555-3-h5-55-5--3h5-5----10101010--8-8-8-8---7-7-7-7---8-8-8-8--------|

Chorus 02:04
Gb|---------------------------------------------------------------------------|
Db|---------------------------------------------------------------------------|
Ab|------------------------------6-6-6-6---5-5-5-5---3-3-3-3------------------|
Db|--5-5-555-3-h5-55-5--3h5-5----------------------------------8-8-8-8--------|

Chorus 02:11
Gb|---------------------------------------------------------------------------|
Db|---------------------------------------------------------------------------|
Ab|---------------------------------------------------------------------------|
Db|--5-5-555-3-h5-55-5--3h5-5----10101010--8-8-8-8---7-7-7-7---8-8-8-8--------|

Bridge 02:17
Gb|---------------------------------------------------------------------------|
Db|---------------------------------------------------------------------------|
Ab|---------------------------------------------------------------------------|
Db|--5--5-----5--5-----3--3-----3--3-----5--5-----5--5-----3-3-3-3-3-3-3-3----|

Bridge 02:23
Gb|---------------------------------------------------------------------------|
Db|---------------------------------------------------------------------------|
Ab|---------------------------------------------------------------------------|
Db|--5--5-----5--5-----3--3-----3--3-----5--5-----5--5-----3-3-3-3-3-3-3-3----|

Bridge 02:30
Gb|---------------------------------------------------------------------------|
Db|---------------------------------------------------------------------------|
Ab|---------------------------------------------------------------------------|
Db|--5--5-----5--5-----3--3-----3--3-----5--5-----5--5-----3-3-3-3-3-3-3-3----|

Bridge 02:36
Gb|---------------------------------------------------------------------------|
Db|---------------------------------------------------------------------------|
Ab|---------------------------------------------------------------------------|
Db|--5--5-----5--5-----3--3-----3--3-----5--5-----5--5-----3-3-3-3-3-3-3-3----|

Chorus 02:45
Gb|---------------------------------------------------------------------------|
Db|---------------------------------------------------------------------------|
Ab|---------------------------------------------------------------------------|
Db|--5-5-555-3-h5-55-5--3h5-5----10101010--8-8-8-8---7-7-7-7---8-8-8-8--------|

Chorus 02:52
Gb|---------------------------------------------------------------------------|
Db|---------------------------------------------------------------------------|
Ab|------------------------------6-6-6-6---5-5-5-5---3-3-3-3------------------|
Db|--5-5-555-3-h5-55-5--3h5-5----------------------------------8-8-8-8--------|

Chorus 02:58
Gb|---------------------------------------------------------------------------|
Db|---------------------------------------------------------------------------|
Ab|---------------------------------------------------------------------------|
Db|--5-5-555-3-h5-55-5--3h5-5----10101010--8-8-8-8---7----7----5--------------|

Outro 03:05
Gb|---------------------------------------------------------------------------|
Db|---------------------------------------------------------------------------|
Ab|---------------------------------------------------------------------------|
Db|--5--5-----5--5-----3--3-----3--3-----5--5-----5--5-----3-3-3-3-3-3-3-3----|

Outro 03:11
Gb|---------------------------------------------------------------------------|
Db|---------------------------------------------------------------------------|
Ab|---------------------------------------------------------------------------|
Db|--5--5-----5--5-----3--3-----3--3-----5--5-----5--5-----3-3-3-3-3----------|

Finished!
            
Submit corrections

comments powered by Disqus
↑ Back to top | 10 Years Bass for Actions And Motives. Lyrics for acoustic guitar and electric guitar. Tablatures and chords are parodies/interpretations of the original songs. You may use it for private study, scholarship, research or language learning purposes only