>
 >
Wall Street Shuffle

Wall Street Shuffle Guitar Tabs

10cc - Wall Street Shuffle chords, tabs, tablatures, lyrics

Guitar lessons | Add/correct | Request | Top 50 tabs Artists:  A B C D E F G H I J K L M N O P Q R S T U V W X Y Z 0-9

Wall Street Shuffle Guitar Tabs – 10cc

CD, Sheet music, Poster

Do you like Wall Street Shuffle? Share with your friends now
ChordsTabsUkulele
-------------------------------------------------------------------------------
-------------------------------------------------------------------------------


here and Iíll get back to you.

Another classic from this great band.  It was tricky to tab a piano
song but I tried anyway. Any corrections welcome.

Tuning: EADGBe

| /  slide up
| \  slide down
| h  hammer-on
| p  pull-off
| ~  vibrato
| +  harmonic
| x  Mute note

Intro:

___________________________________________________________________

e|--------------------------------|--------------------------------|
B|--------------------------------|--------------------------------|
G|--------------------------------|--------------------------------|
D|--------------------------------|--------------------------------|
A|--------------------------------|-------------------------3---5--|
E|--------------------------------|--------------------------------|


____________________________________C___________Dm_________________

e|--------------------------------|-------------5------------------|
B|--------------------------------|-5---5-------6------------------|
G|--------------------------------|-5---5-------7------------------|
D|-3------------------------------|-5---5-------7------------------|
A|---------5-------3---5----------|-3---3-------5-----------3---5--|
E|--------------------------------|--------------------------------|

 | 1 - & - 2 - & - 3 - & - 4 - & -| 1 - & - 2 - & - 3 - & - 4 - & -|


____________________________________C___________Dm_________________
                                                          " Do  the... "
e|--------------------------------|-------------5------------------|
B|--------------------------------|-5---5-------6------------------|
G|--------------------------------|-5---5-------7------------------|
D|-3------------------------------|-5---5-------7------------------|
A|---------5-------3---5----------|-3---3-------5------------------|
E|--------------------------------|--------------------------------|


Chorus:

____________________________________C___________Dm_________________
 " Wall    Street  shuffle...                            ...hear the...
   mo  -   ney     rustle...                             ...watch the...
   green - backs   tumble...                             ...feel the... "
e|--------------------------------|-------------5------------------|
B|--------------------------------|-5---5-------6------------------|
G|--------------------------------|-5---5-------7------------------|
D|--------------------------------|-5---5-------7------------------|
A|--------------------------------|-3---3-------5------------------|
E|--------------------------------|--------------------------------|


____________________________________C___________Dm_________________
 " Ster  - ling    crumble... "
e|--------------------------------|-------------5------------------|
B|--------------------------------|-5---5-------6------------------|
G|--------------------------------|-5---5-------7------------------|
D|--------------------------------|-5---5-------7------------------|
A|--------------------------------|-3---3-------5------------------|
E|--------------------------------|--------------------------------|


Verse 1: ( Bass plays an F note )


___F_______________Bb_______________G7______________Am______C______
  " You need a yen to make a mark if you wanna make mo   -  ney...
 " You need the luck to make a buck if you wanna be Get  -  ty... "
e|--------------------------------|--------------------------------|
B|-10----10--10----11----11--11---|-12----12--12----5-------5------|
G|-10----10--10----10----10--10---|-10----10--10----5-------5------|
D|-10----10--10----12----12--12---|-12----12--12----7-------5------|
A|--------------------------------|--------------------------------|
E|--------------------------------|--------------------------------|

 | 1 - & - 2 - & - 3 - & - 4 - & -| 1 - & - 2 - & - 3 - & - 4 - & -|


___Cm9_____Cm______Fm9_____Fm______________________
 " Roths - child   gotta be cool on wall Street...    you've... "
e|-----------------3-------1------|----------------|
B|-3-------1-------1-------1------|----------------|
G|-3-------3-------1-------1------|----------------|
D|-1-------1-------3-------3------|----------------|
A|-3-------3----------------------|----------------|
E|--------------------------------|----------------|


___Gm______________________________________________________________
 " gotta be cool on Wall Street when your index is low... "
e|--------------------------------|--------------------------------|
B|-11--11--11--11--11--11--11--11-|-11--11--11--11--11--11--11--11-|
G|-12--12--12--12--12--12--12--12-|-12--12--12--12--12--12--12--12-|
D|-12--12--12--12--12--12--12--12-|-12--12--12--12--12--12--12--12-|
A|-10--10--10--10--10--10--10--10-|-10--10--10--10--10--10--10--10-|
E|--------------------------------|--------------------------------|

 | 1 - & - 2 - & - 3 - & - 4 - & -| 1 - & - 2 - & - 3 - & - 4 - & -|

___Fm______________________________________________________________
 " Dow Jones ain't got time for the bums...                      they... "
e|--------------------------------|--------------------------------|
B|-9---9---9---9---9---9---9---9--|-9---9---9---9---9---9---9---9--|
G|-10--10--10--10--10--10--10--10-|-10--10--10--10--10--10--10--10-|
D|-10--10--10--10--10--10--10--10-|-10--10--10--10--10--10--10--10-|
A|-8---8---8---8---8---8---8---8--|-8---8---8---8---8---8---8---8--|
E|--------------------------------|--------------------------------|


___Cm_______________________________Fm6/C__________________________
" wind up      on skid row    with holes in     their pockets, they... "
e|-----3-------3-------3-------3--|-----4-------4-------4-------4--|
B|-----4-------4-------4-------4--|-----3-------3-------3-------3--|
G|-----5-------5-------5-------5--|-----5-------5-------5-------5--|
D|-----5-------5-------5-------5--|-----3-------3-------3-------3--|
A|-----3-------3-------3-------3--|-----3-------3-------3-------3--|
E|--------------------------------|--------------------------------|


___Fdim/C___________________________F___________C__________________
 " plead with you,  "buddy can you  spare   a   dime?"  but you ain't... "
e|-----4-------4-------4-------4--|-1-----------0------------------|
B|-----3-------3-------3-------3--|-1-----------1------------------|
G|-----4-------4-------4-------4--|-2-----------0------------------|
D|-----3-------3-------3-------3--|-3-----------2------------------|
A|-----3-------3-------3-------3--|-------------3------------------|
E|--------------------------------|--------------------------------|


___Em__________A__________________
 " got   the   time, you're doin' the... "
e|-0-----------0------------------|
B|-0-----------2------------------|
G|-0-----------2------------------|
D|-2-----------2------------------|
A|-2-----------0------------------|
E|-0------------------------------|


___Dm______________Bb7______________A7__________Dm_________________
                                                       " doin' the... "
e|-5---5---5---5---6---6---6---6--|-5---5---5---5------------------|
B|-6---6---6---6---6---6---6---6--|-5---5---5---6------------------|
G|-7---7---7---7---7---7---7---7--|-6---6---6---7------------------|
D|-7---7---7---6---6---6---6---6--|-5---5---5---7------------------|
A|-5---5---5---5---8---8---8---8--|-7---7---7---5------------------|
E|-----------------6---6---6---6--|-5---5---5----------------------|


___Dm______________Bb7______________A7__________Dm_________________

e|-5---5---5---5---6---6---6---6--|-5---5---5---5------------------|
B|-6---6---6---6---6---6---6---6--|-5---5---5---6------------------|
G|-7---7---7---7---7---7---7---7--|-6---6---6---7------------------|
D|-7---7---7---6---6---6---6---6--|-5---5---5---7------------------|
A|-5---5---5---5---8---8---8---8--|-7---7---7---5------------------|
E|-----------------6---6---6---6--|-5---5---5----------------------|

Middle part:

___F________________________________C/F____________________________
 " ooh,                      Howard Hughes... "
e|--------------------------------|--------------------------------|
B|-10-----------------------------|-8------------------------------|
G|-10-----------------------------|-9------------------------------|
D|-10-----------------------------|-10-----------------------------|
A|-8------------------------------|-8------------------------------|
E|--------------------------------|--------------------------------|


___Bb/F_____________________________F______________________________
          " did your money make you better? "
e|--------------------------------|--------------------------------|
B|-6------------------------------|-6------------------------------|
G|-7------------------------------|-5------------------------------|
D|-8------------------------------|-7------------------------------|
A|-8------------------------------|-8---------------8-------7------|
E|--------------------------------|--------------------------------|


___Dm_______________________________Bb/D___________________________
          " are you waiting for the hour          when you can screw... "
e|--------------------------------|--------------------------------|
B|-6------------------------------|-3------------------------------|
G|-7------------------------------|-3------------------------------|
D|-7------------------------------|-3------------------------------|
A|-5------------------------------|-5------------------------------|
E|--------------------------------|--------------------------------|


___Gm_______________________________Abdim__________________________
 " me                 'cause you're big enough...          to do the... "
e|--------------------------------|--------------------------------|
B|-3-------3-------3---3----------|--------------------------------|
G|-3-------3-------3---3----------|--------------------------------|
D|-5-------5-------5---5----------|--------------------------------|
A|-5-------5-------5---5----------|---------5---8------------------|
E|-3-------3-------3---3----------|-4---7--------------------------|

 | 1 - & - 2 - & - 3 - & - 4 - & -| 1 - & - 2 - & - 3 - & - 4 - & -|


Chorus 2:

____________________________________C___________Dm_________________
 " Wall    Street  Shuffle...                    ...Let your
   mo      ney     hustle...                     ...Bet you'd
   sell    your    mother...                     ...You can... "
e|--------------------------------|-------------5------------------|
B|--------------------------------|-5---5-------6------------------|
G|--------------------------------|-5---5-------7------------------|
D|--------------------------------|-5---5-------7------------------|
A|--------------------------------|-3---3-------5------------------|
E|--------------------------------|--------------------------------|


____________________________________C___________Dm_________________
 " buy     a    -  nother... "
e|--------------------------------|-------------5------------------|
B|--------------------------------|-5---5-------6------------------|
G|--------------------------------|-5---5-------7------------------|
D|--------------------------------|-5---5-------7------------------|
A|--------------------------------|-3---3-------5------------------|
E|--------------------------------|--------------------------------|


Final part:  Rhythm guitar plays only Dm and C chords.  I have tried to
arrange the more interesting piano part as well.


___Dm______________________________________________________________

e|--------------------------------|--------------------------------|
B|-6------------------------------|--------------------------------|
G|-7------------------------------|--------------------------------|
D|-7------------------------------|--------------------------------|
A|-5------------------------------|--------------------------------|
E|--------------------------------|--------------------------------|

___Dm______________Gm____Dm_________Gm____Dm________F_____Gm____Dm_
( piano, arranged for guitar... )
e|-5-----5-----5---6-----5-----5--|-6-----5-----5---8-----6-----5--|
B|-6-----6-----6---8-----6-----6----8-----6-----6---10----8-----6--|
G|-7-----7-----7---7-----7-----7----7-----7-----7---10----7-----7--|
D|-0---------------------------------------------------------------|
A|-----------------------------------------------------------------|
E|--------------------------------|--------------------------------|

___C_______________________________________________________________
( rhythm guitar... )
e|--------------------------------|--------------------------------|
B|-5------------------------------|--------------------------------|
G|-5------------------------------|--------------------------------|
D|-5------------------------------|--------------------------------|
A|-3------------------------------|--------------------------------|
E|--------------------------------|--------------------------------|

___C_______________G_____C_____F____C_______________G_____C________
( piano, arranged for guitar... )
e|--------------------------------|--------------------------------|
B|-8-----8-----8---8-----8-----10---8-----8-----8---8-----8--------|
G|-9-----9-----9---7-----9-----10---9-----9-----9---7-----9--------|
D|-10----10----10--9-----10----10---10----10----10--9-----10-------|
A|-----------------------------------------------------------------|
E|-8------------------------------|--------------------------------|


Repeat until...


___A5______________________________________________________________
                                                       " doin' the.. "
e|--------------------------------|--------------------------------|
B|--------------------------------|--------------------------------|
G|-2------------------------------|--------------------------------|
D|-2------------------------------|--------------------------------|
A|-0------------------------------|-0-----------------------3---5--|
E|--------------------------------|---------3-------1--------------|

___Dm______________Bb7______________A7__________Dm_________________
                                                       " doin' the... "
e|-5---5---5---5---6---6---6---6--|-5---5---5---5------------------|
B|-6---6---6---6---6---6---6---6--|-5---5---5---6------------------|
G|-7---7---7---7---7---7---7---7--|-6---6---6---7------------------|
D|-7---7---7---6---6---6---6---6--|-5---5---5---7------------------|
A|-5---5---5---5---8---8---8---8--|-7---7---7---5------------------|
E|-----------------6---6---6---6--|-5---5---5----------------------|


___Dm______________Bb7______________A7__________Dm_________________

e|-5---5---5---5---6---6---6---6--|-5---5---5---5------------------|
B|-6---6---6---6---6---6---6---6--|-5---5---5---6------------------|
G|-7---7---7---7---7---7---7---7--|-6---6---6---7------------------|
D|-7---7---7---6---6---6---6---6--|-5---5---5---7------------------|
A|-5---5---5---5---8---8---8---8--|-7---7---7---5------------------|
E|-----------------6---6---6---6--|-5---5---5----------------------|


Verse 2:


___F_______________Bb_______________G7______________Am______C______
" You buy and sell,  you wheel and deal,but you're living on instinct... "
" You get a tip,     you follow it,    and you make a big killing... "
e|--------------------------------|--------------------------------|
B|-10----10--10----11----11--11---|-12----12--12----5-------5------|
G|-10----10--10----10----10--10---|-10----10--10----5-------5------|
D|-10----10--10----12----12--12---|-12----12--12----7-------5------|
A|--------------------------------|--------------------------------|
E|--------------------------------|--------------------------------|

 | 1 - & - 2 - & - 3 - & - 4 - & -| 1 - & - 2 - & - 3 - & - 4 - & -|


___Cm9_____Cm______Fm9_____Fm_______Bbm9____Bbm____________________
                                                             " on.. "
e|-----------------3-------1------|-8-------6----------------------|
B|-3-------1-------1-------1------|-6-------6----------------------|
G|-3-------3-------1-------1------|-6-------6----------------------|
D|-1-------1-------3-------3------|-8-------8----------------------|
A|-3-------3----------------------|--------------------------------|
E|--------------------------------|--------------------------------|


Final part:


___Dm______________________________________________________________
 " Wall Street... "
e|--------------------------------|--------------------------------|
B|-6------------------------------|--------------------------------|
G|-7------------------------------|--------------------------------|
D|-7------------------------------|--------------------------------|
A|-5------------------------------|--------------------------------|
E|--------------------------------|--------------------------------|

___Dm______________Gm____Dm_________Gm____Dm________F_____Gm____Dm_
( piano, arranged for guitar... )
e|-5-----5-----5---6-----5-----5--|-6-----5-----5---8-----6-----5--|
B|-6-----6-----6---8-----6-----6----8-----6-----6---10----8-----6--|
G|-7-----7-----7---7-----7-----7----7-----7-----7---10----7-----7--|
D|-0---------------------------------------------------------------|
A|-----------------------------------------------------------------|
E|--------------------------------|--------------------------------|

___C_______________________________________________________________
( rhythm guitar... )
e|--------------------------------|--------------------------------|
B|-5------------------------------|--------------------------------|
G|-5------------------------------|--------------------------------|
D|-5------------------------------|--------------------------------|
A|-3------------------------------|--------------------------------|
E|--------------------------------|--------------------------------|

___C_______________G_____C_____F____C_______________G_____C________
( piano, arranged for guitar... )
e|--------------------------------|--------------------------------|
B|-8-----8-----8---8-----8-----10---8-----8-----8---8-----8--------|
G|-9-----9-----9---7-----9-----10---9-----9-----9---7-----9--------|
D|-10----10----10--9-----10----10---10----10----10--9-----10-------|
A|-----------------------------------------------------------------|
E|-8------------------------------|-8------------------------------|


Repeat to end.


Lyrics:


Do the Wall Street shuffle
Hear the money rustle
Watch the greenbacks tumble
Feel the Sterling crumble

You need a yen to make a mark
If you wanna make money
You need the luck to make a buck
If you wanna be Getty, Rothschild...
You've gotta be cool on Wall Street

You've gotta be cool on Wall Street
When your index is low
Dow Jones ain't got time for the bums
They wind up on skid row with holes in their pockets
They plead with you, " buddy can you spare a dime? "
But you ain't got the time,
You're doin' the....

Oh, Howard Hughes
Did your money make you better?
Are you waiting for the hour
When you can screw me?
`Cos you're big enough...

To do the Wall Street Shuffle
Let your money hustle
Bet you'd sell your mother
You can buy another
Doin' the....
Doin' the....

You buy and sell
You wheel and deal
But you're living on instinct
You get a tip
You follow it
And you make a big killing
On Wall Street





Comments


Popular 10cc tabs & chords
Donna Chords
Dreadlock Holiday Chords
Dreadlock Holiday 2 Chords
Dreadlock Holiday 5 Chords
Good Morning Judge Chords
The Things We Do For Love 1 Chords
I'm Not In Love 1 Tabs
The Things We Do For Love Tabs
Dreadlock Holiday Ukulele
I Bought A Flat Guitar Tutor Ukulele


Song lyrics



↑ Back to top | Tablatures and chords are parodies/interpretations of the original songs. You may use it for private study, scholarship, research or language learning purposes only
© 2014 AZChords.com Contact us | Privacy policy | DMCA | Add/correct tabs | Request tabs | Top 50 tabs