» » »

10cc, Good Morning Judge Tabs (ver.1)

Artists:  A B C D E F G H I J K L M N O P Q R S T U V W X Y Z # 

Good Morning Judge Tabs (ver.1)

10cc Tabs
 Rating:
4/5 (5 votes)
Good Morning Judge lessons Tabs too difficult? Try these video lessons and learn fast
1
                -------------------------------------------------------------------------------
-------------------------------------------------------------------------------


here and I’ll get back to you.


Great band, great song, great guitar playing. Hope you like it.


Tuning: EADGBe

| /  slide up
| \  slide down
| h  hammer-on
| p  pull-off
| ~  vibrato or sustain
| +  harmonic
| x  Mute note
| b  bend
| ^  quarter tone bend
| r  relax bend
| pb pre-bend
|(5) optional/alternative note



Intro/main riff: 


___A______________________________________________________________
( lead guitar... )
e|----------------------------------------------------------------|
B|-14\------------------------------------------------------------|
G|-14\------------------------------------------------------------|
D|-14\------------------------------------------------------------|
A|----------------------------------------------------------------|
E|----------------------------------------------------------------|


___A______________________________________________________________
( rhythm guitar... )
e|----------------------------------------------------------------|
B|----------------------------------------------------------------|
G|---------5-------4--p2-----------5-------4--p2---------------2--|
D|---------5-------4--p2-----------5-------4--p2------------------|
A|-0---------------------------------------------------0---3/4----|
E|----------------------------------------------------------------|

 | 1   -   &   -   2   -   &   -   3   -   &   -   4   -   &   -  |



Repeat a few times, then:


Verse: " Well, good... "


___A______________________________________________________________
 " morning   judge,        how are you     to   -  day?
           I'm in  trouble please  put me  a   -   way.
         A pretty  thing   took  a shine   to      me... "
e|----------------------------------------------------------------|
B|----------------------------------------------------------------|
G|-2-------------------------------2---2--------------------------|
D|-2-------4-------2-------4-------2---2---4-------2-------4------|
A|-0-------0-------0-------0-------0-------0-------0-------0------|
E|----------------------------------------------------------------|

 | 1   -   &   -   2   -   &   -   3   -   &   -   4   -   &   -  |

___F#m_____________________________F______________________________
        " I couldn't stop her so I let it be... "
e|-2-------------------------------1------------------------------|
B|-2-------------------------------1------------------------------|
G|-2-------------------------------2------------------------------|
D|-4-------------------------------3------------------------------|
A|-4-------------------------------3------------------------------|
E|-2-------------------------------1------------------------------|


___A______________________________________________________________
        " I couldn't stop her so I let it be, 
          I couldn't stop her so I let it be, 
          I couldn't stop her so I let it be... "
e|----------------------------------------------------------------|
B|----------------------------------------------------------------|
G|---------5-------4--p2-----------5-------4--p2---------------2--|
D|---------5-------4--p2-----------5-------4--p2------------------|
A|-0---------------------------------------------------0---3/4----|
E|----------------------------------------------------------------|


___A___________________________________________________A__________

e|----------------------------------------------------------------|
B|-----------------------------------------------------2----------|
G|---------5-------4--p2-----------5-------4--p2-------2----------|
D|---------5-------4--p2-----------5-------4--p2-------2----------|
A|-0---------------------------------------------------0----------|
E|----------------------------------------------------------------|


___A_______________________________________________________D______
        ( this part is slide guitar on the actual song )
e|---------------------------------10b12---8----------------------|
B|----/10--10--10--10-p8-----------------------10----------7b/----|
G|---------------------------------------------------------7b/----|
D|---------------------------------------------------------7b/----|
A|----------------------------------------------------------------|
E|----------------------------------------------------------------|




Slight pause and then...


___C#m_________________C#m6add4____C#m_____________B5______C5_____
                     " He  didn't  do  it
                       He  wasn't  there
                       He  didn't  want it "
e|----------------------------------------------------------------|
B|---------9-----------11--11------9--(9)-------------------------|
G|---------9-----------11--11------9--(9)-------------------------|
D|---------9-----------11--11------9--(9)-------------------------|
A|-11------11----------11--11------11-(11)---------9-------10-----|
E|-9-------9-----------9---9-------9--(9)----------7-------8------|

 | 1   -   &   -   2   -   &   -   3   -   &   -   4   -   &   -  |


___C#m_________________C#m6add4____C#m_____________C#5_D5_________
                     " He wouldn't dare! " 
e|----------------------------------------------------------------|
B|---------9-----------11--11------9------------------------------|
G|---------9-----------11--11------9------------------------------|
D|---------9-----------11--11------9------------------------------|
A|-11------11----------11--11------11--------------11--12---------|
E|-9-------9-----------9---9-------9---------------9---10---------|


___Eb_____________________________________________________________

e|----------------------------------------------------------------|
B|----------------------------------------------------------------|
G|----------------------------------------------------------------|
D|-13\------------------------------------------------------------|
A|-13\------------------------------------------------------------|
E|-11\------------------------------------------------------------|



Repeat verse section more or less the same until...



___C#m_________________C#m6add4____C#m_____________D5______C#5____
                     ( He  wouldn't dare! " )
e|----------------------------------------------------------------|
B|---------9-----------11--11------9------------------------------|
G|---------9-----------11--11------9------------------------------|
D|---------9-----------11--11------9------------------------------|
A|-11------11----------11--11------11--------------12------11-----|
E|-9-------9-----------9---9-------9---------------10------9------|



___Dm__________________Dm6add4_____Dm______________C5______C#5____
                     " I   didn't  do  it
                       I   wasn't  there
                       I   didn't  want it "
e|----------------------------------------------------------------|
B|---------10----------12--12------10-(10)------------------------|
G|---------10----------12--12------10-(10)------------------------|
D|---------10----------12--12------10-(10)------------------------|
A|-12------12----------12--12------12-(12)---------10------11-----|
E|-10------10----------10--10------10-(10)---------8-------9------|


___Dm__________________Dm6add4_____Dm_____________________________
                   " I wouldn't    dare! "
e|----------------------------------------------------------------|
B|---------10----------12--12------10-----------------------------|
G|---------10----------12--12------10-----------------------------|
D|---------10----------12--12------10-----------------------------|
A|-12------12----------12--12------12-----------------------------|
E|-10------10----------10--10------10-----------------------------|


Instrumental section: Two guitars... 



___D_(xx023x)_____________________________________________________
( rhythm guitar... )
e|----------------------------------------------------------------|
B|-----------------3-------------------------------3--------------|
G|---------2---------------2---------------2---------------2------|
D|-0-------------------------------0------------------------------|
A|----------------------------------------------------------------|
E|----------------------------------------------------------------|
( lead guitar... )
e|----------------------------------------------------------------|
B|-3~~~~~~~~~~-3~~~~~~~~~~-3~~~~~~~~~~~~~~~~~~~~~~~~~~~~~~~~------|
G|-5b7~~~~~~~~-5b7~~~~~~~~-5b7~~~~~~~~~~~~~~~~~~~~~~~~~~~~~~------|
D|----------------------------------------------------------------|
A|----------------------------------------------------------------|
E|----------------------------------------------------------------|



___D/C_(x3x23x)___________________________________________________
( rhythm guitar... )
e|----------------------------------------------------------------|
B|-----------------3-------------------------------3--------------|
G|---------2---------------2---------------2---------------2------|
D|----------------------------------------------------------------|
A|-3-------------------------------3------------------------------|
E|----------------------------------------------------------------|
( lead guitar... )
e|----------------------------------------------------------------|
B|-7~~~~~~~~~~-7~~~~~~~~~~-7~~~~~~~~~~~~~~~~~~~~~~~~~~~~~~~~------|
G|-9b11~~~~~~~-9b11~~~~~~~-9b11~~~~~~~~~~~~~~~~~~~~~~~~~~~~~------|
D|----------------------------------------------------------------|
A|----------------------------------------------------------------|
E|----------------------------------------------------------------|



___D/B_(x2x23x)___________________________________________________
( rhythm guitar... )
e|----------------------------------------------------------------|
B|-----------------3-------------------------------3--------------|
G|---------2---------------2---------------2---------------2------|
D|----------------------------------------------------------------|
A|-2-------------------------------2------------------------------|
E|----------------------------------------------------------------|
( lead guitar... )
e|----------------------------------------------------------------|
B|-10~~~~~~~~~-10~~~~~~~~~-10~~~~~~~~~~~~~~~~~~~~~~~~~~~~~~~------|
G|-12b14~~~~~~-12b14~~~~~~-12b14~~~~~~~~~~~~~~~~~~~~~~~~~~~~------|
D|----------------------------------------------------------------|
A|----------------------------------------------------------------|
E|----------------------------------------------------------------|



___D/Bb_(x1x23x)__________________________________________________
( rhythm guitar... )
e|----------------------------------------------------------------|
B|-----------------3-------------------------------3--------------|
G|---------2---------------2---------------2---------------2------|
D|----------------------------------------------------------------|
A|-1-------------------------------1------------------------------|
E|----------------------------------------------------------------|
( lead guitar... )
e|----------------------------------------------------------------|
B|-13~~~~~~~~~-13~~~~~~~~~-13~~~~~~~~~~~~~~~~~~~~~~~~~~~~~~~------|
G|-15b17~~~~~~-15b17~~~~~~-15b17~~~~~~~~~~~~~~~~~~~~~~~~~~~~------|
D|----------------------------------------------------------------|
A|----------------------------------------------------------------|
E|----------------------------------------------------------------|



Guitar solo:  

There are two guitars taking turns for the solo, but I have 


___A_(x022xx)_____________________________________________________

e|---------------------------------------------12------12------12-|
B|---------------------------------10-h12-h14------14------14-----|
G|---------------------9---9--h11---------------------------------|
D|---------7----9-/11---------------------------------------------|
A|-7--h9----------------------------------------------------------|
E|----------------------------------------------------------------|

 | 1   -   &   -   2   -   &   -   3   -   &   -   4   -   &   -  |

___A______________________________________________________________

e|-----12-/15------15------15------15------17^~~~~~~~~------------|
B|-14----------17------17------17------17-------------------------|
G|---------------------------------------------------------4b~~~~~|
D|----------------------------------------------------------------|
A|----------------------------------------------------------------|
E|----------------------------------------------------------------|


___A______________________________________________________________

e|----------------------------------------------------------------|
B|---------2---------------2--------------------------------------|
G|~b6--------------4b6-------------6-p4-p2h4-------2--------------|
D|-------------------------------------------------------------2--|
A|-----------------------------------------------------3--h4------|
E|----------------------------------------------------------------|


___A______________________________________________________________

e|----------------------------------------------------------------|
B|----------------------------------------------------------------|
G|-2--------------------------------------------------------------|
D|---pb5--r4---2---4--p2-------2----------------------------------|
A|-------------------------3h4-----0~~~~~~~~~~~~~~~~~~~~~~~~~~~~~~|
E|----------------------------------------------------------------|


___A______________________________________________________________

e|---------5-------5-------5-------5-------5-------8--/9----------|
B|---------5-------5-------5-------5-------5-------9--/10---------|
G|/6---------------------------6-------6---6-------8--/9----------|
D|/7---------------------------7-------7---7-------10-/11---------|
A|----------------------------------------------------------------|
E|----------------------------------------------------------------|


___A______________________________________________________________

e|----------------------------------------------------------------|
B|---------10------8-------7--------------------------------------|
G|---------------------------------9------------------------------|
D|-10/11-------11------9-------7-------9b11-----------------------|
A|-------------------------------------------------0--------------|
E|----------------------------------------------------------------|


___A______________________________________________________________

e|---------5-----------7-----------9-----------10----------12--/14~~
B|----------------------------------------------------------------|
G|-5--/6-------6--/7-------7--/9-------9--/11------11-/12------/14~~
D|----------------------------------------------------------------|
A|----------------------------------------------------------------|
E|----------------------------------------------------------------|

 | 1   -   &   -   2   -   &   -   3   -   &   -   4   -   &   -  |

___F#m_(244222)____________________F_(133211)_____________________

e|-------------------------2-------5---2--------------------------|
B|-----------------2---5-------------------5---2------------------|
G|---------2---4b6---------------------------------4---2----------|
D|-2---4---------------------------------------------------4------|
A|----------------------------------------------------------------|
E|----------------------------------------------------------------|


___E_(022100)_____________________________________________________

e|----------------------------------------------------------------|
B|----------------------------------------------------------------|
G|----------------------------------------------------------------|
D|-2~~~~~~~~~~~~~~~~~~~~~~~~~~~~~~~~~~~~~~~~~~~~~~~~~~~~~~~~~~~~~~|
A|----------------------------------------------------------------|
E|----------------------------------------------------------------|



Riff 2:

___E_(022xxx)_____________________________________________________

e|----------------------------------------------------------------|
B|----------------------------------------------------------------|
G|----------------------------------------------------------------|
D|---------2-----------0------------------------------------------|
A|---------------------------------4-----------2-----------2--h4--|
E|-0---------------0-----------0-----------0-----------0----------|

 | 1   -   &   -   2   -   &   -   3   -   &   -   4   -   &   -  |



Repeat riff 2 a few times, then...

Repeat main riff.

Repeat verse.



Ending:


___A___________________________________________________A__________

e|----------------------------------------------------------------|
B|-----------------------------------------------------2----------|
G|---------5-------4--p2-----------5-------4--p2-------2----------|
D|---------5-------4--p2-----------5-------4--p2-------2----------|
A|-0---------------------------------------------------0----------|
E|----------------------------------------------------------------|


___A_______________________________________________________D______

e|---------------------------------10b12---8----------------------|
B|----/10--10--10--10-p8-----------------------10----------7------|
G|---------------------------------------------------------7------|
D|---------------------------------------------------------7------|
A|----------------------------------------------------------------|
E|----------------------------------------------------------------|




Lyrics:


Well good morning Judge, how are you today
I'm in trouble, please put me away
A pretty thing took a shine to me
I couldn't stop her so I let it be
I couldn't stop her so I let it be
I couldn't stop her so I let it be
I couldn't stop her so I let it be 

He didn't do it, he wasn't there
He didn't want it, he wouldn't dare 

Well good morning Judge, yes I'm back again
I'm in trouble, so it's back to the pen
I found a car but I couldn't pay
I fell in love and I drove it away
I fell in love and I drove it away
I fell in love and I drove it away
I fell in love and I drove it away 

He didn't do it, he wasn't there
He didn't want it, he wouldn't dare 

I didn't do it, I wasn't there
I didn't want it, I wouldn't dare 

Alcatraz is like a home sweet home
I'm so wanted and I'm never alone
San Quentin is the place to be
I'm so happy I don't wanna be free
So happy I don't wanna be free
So happy I don't wanna be free
So happy I don't wanna be free



Legend:

| /  slide up
| \  slide down
| h  hammer-on
| p  pull-off
| ~  vibrato or sustain
| +  harmonic
| x  Mute note
| b  bend
| ^  quarter tone bend
| r  relax bend
| pb pre-bend
|(5) optional/alternative note
            
Submit corrections

comments powered by Disqus
↑ Back to top | 10cc Tabs for Good Morning Judge. Lyrics for acoustic guitar and electric guitar. 1 Tablatures and chords are parodies/interpretations of the original songs. You may use it for private study, scholarship, research or language learning purposes only