>
 >
Berting

Berting Guitar Tabs

1017 - Berting chords, tabs, tablatures, lyrics

Guitar lessons | Add/correct | Request | Top 50 tabs Artists:  A B C D E F G H I J K L M N O P Q R S T U V W X Y Z 0-9

Berting Guitar Tabs – 1017

CD, Sheet music, Poster

Do you like Berting? Share with your friends now
ChordsTabsUkulele

Tuning: Half-step down

Intro: E-C#m-F#m-B (repeat)
        ^     ^     ^              Legends:
--4-4----4-4---5-5------I            ^ = do some tap here..--..
--5-5----5-5---7-7---7---------------------------------------..I
--4-4----6-6---6-6---8---------------------------------------..I
---------6-6------------I...repeat lang.---------------------..
-------------------------------------------------------------..I
-------------------------------------------------------------..I
   E      C#m   F#m  B

the base sounds like this..

--------------------------------------------------..I
--------------------------------------------------..I
--------------------------------------------------..I
---------------------------I...repeat lang din..--..
--7-7----4-4------------2-------------------------..I
----------------2-2--4----------------------------..I

verse:
        ^     ^     ^
--4-4----4-4---5-5--------..I
--5-5----5-5---7-7-----7--..I
--4-4----6-6---6-6-----8--..I
---------6-6--------------..I
--------------------------..I
--------------------------..I
  Ting..        Gutom...mga
        ^     ^       ^
--4-4----4-4---5-5--------..I
--5-5----5-5---7-7-----7--..I
--4-4----6-6---6-6-----8--..I
---------6-6--------------..I
--------------------------..I
--------------------------..I
  ting...       Bigyan..kanin

        ^     ^      ^
--4-4----4-4---5-5--------..I
--5-5----5-5---7-7-----7--..I
--4-4----6-6---6-6-----8--..I
---------6-6--------------..I
--------------------------..I
--------------------------..I
  ting...      dalhin..agad..

        ^     ^     ^
--4-4----4-4---5-5------..I
--5-5----5-5---7-7---7--..I
--4-4----6-6---6-6---8--..I
---------6-6------------..I
------------------------..I
------------------------..I
Berting... (timingan na lamang po..esp ung pag tatap...)

verse:
E  C#m  F#m        B         E-C#m
Ting, gutom na'ng mga pato ting
 F#m            B       E-C#m
Bigyan mo na ng kanin ting
 F#m          B       E-C#m-F#m-B
Dalhin mo na agad berting
E C#m   F#m         B       E-C#m
Ting, Ihanda mo ang labada ting
 F#m              B     E-C#m
Kusutin mo na'ng maigi ting
 F#m              B      E-C#m-F#m-B
Lagyan mo rin ng clorox ting....

Koro:
   A                G#m                  B            Esus E
Berting (berting)...ang macho ng iyong dating (dating)
   A                G#m                  B            Gsus G
Berting (berting)...na ander ng kanyang darling (darling)
 CM7      Am                 G...Esus E
Berting wag kang magpapatao ting
 F#m                G#m        A        B           E-C#m-F#m-B(2x)
Wag mong hayaang mamihasa ang misis mo oh... Berting....

E  C#m    F#m          B     E-C#m
Ting ang dumi-dumi ng bahay ting
 F#m           B     E-C#m
Baka si nanay dumating
 F#m          B      E-C#m-F#m-B
Lagot ka mamaya Berting
E C#m     F#m          B       E-C#m
Ting mag-isip ka na ng tubig ting
 F#m              B      E-C#m
Ihanda mo na ang banyo ting
 F#m         B        E-C#m-F#m-B
Paliguan mo ako Berting...hay...

Koro:
   A                G#m                  B            Esus E
Berting (berting)...ang macho ng iyong dating (dating)
   A                G#m                  B            Gsus G
Berting (berting)...na ander ng kanyang darling (darling)
 CM7      Am                 G...Esus E
Berting wag kang magpapatao ting
 F#m                G#m        A        B           (adlib)
Wag mong hayaang mamihasa ang misis mo oh... Berting....
[mr_rain rocks!....adlib here...E-C#m-F#m-B four times]

        ^     ^     ^
--4-4----4-4---5-5--------------------------------------------..I
--5-5----5-5---7-7---7----------------------------------------..I
--4-4----6-6---6-6---8----------------------------------------..I
---------6-6------------I....four times here...habang adlib.--..
--------------------------------------------------------------..I
--------------------------------------------------------------..I

Koro:
   A                G#m                  B            Esus E
Berting (berting)...ang macho ng iyong dating (dating)
   A                G#m                  B            Gsus G
Berting (berting)...na ander ng kanyang darling (darling)
 CM7      Am                 G...Esus E
Berting wag kang magpapatao ting
 F#m                G#m        A        B
wag mong hayaang mamihasa ang misis mo oh...

[use the chords E-C#m-F#m-B here...three times]
Berting...
Oh...ting...
     CM7           D   E...
Ang laki ng iyong **-****....hehehe


====pls rate po!...





Comments


Popular 1017 tabs & chords
Ako Na Lang Chords
Sana 1 Chords
2k2papa Tabs
Charing 2 Tabs
Nobena 1 Tabs
Rotnibur Tabs
Sana 2 Tabs
Seloso Tabs
Berting Ukulele
Utot Ukulele


Song lyrics



↑ Back to top | Tablatures and chords are parodies/interpretations of the original songs. You may use it for private study, scholarship, research or language learning purposes only
© 2014 AZChords.com Contact us | Privacy policy | DMCA | Add/correct tabs | Request tabs | Top 50 tabs