>
 >
2k2papa

2k2papa Guitar Tabs

1017 - 2k2papa chords, tabs, tablatures, lyrics

Guitar lessons | Add/correct | Request | Top 50 tabs Artists:  A B C D E F G H I J K L M N O P Q R S T U V W X Y Z 0-9

2k2papa Guitar Tabs – 1017

CD, Sheet music, Poster

Do you like 2k2papa? Share with your friends now
Tabs
Tuning: Half-step down

Chords:

A9:   x02200

Bm:   x24432

Dm:   x57765/xx0231

Chord inversion:

A/E:  002100

Intro: A9-A/E...(4x)

-------------------------------------------------I
-------------------------------------------------I
----------1--/4-1---1-1---------1--/4-1---1-1----I
--2h4-2h4---------4-----2h4-2h4---------4--------I (2x)
-------------------------------------------------I
-------------------------------------------------I

-------------------------------------------------I
----------2--/5-2---2-2---------2--/5-2---2-2----I
--2h4-2h4---------4-----2h4-2h4---------4--------I
-------------------------------------------------I
-------------------------------------------------I (2x)
-------------------------------------------------I

Sabay nyo ung strum na ito....

--00-00000--00-00000---00-00000--00-00000--------I
--00-00000--00-00000---00-00000--00-00000--------I
--22-22222--11-11111---22-22222--11-11111--------I
--22-22222--22-22222---22-22222--22-22222--------I
--00-00000--00-00000---00-00000--00-00000--------I
------------00-00000-------------00-00000--------I

verse:

--00-00000--00-00000---22-22222--55-55555--------I
--00-00000--00-00000---33-33333--66-66666--------I
--22-22222--11-11111---44-44444--77-77777--------I
--22-22222--22-22222---44-44444--77-77777--------I
--00-00000--00-00000---22-22222--55-55555--------I
------------00-00000-----------------------------I

Di ka...   di ka na...malulumbay..sa suliranin...

--00-00000--00-00000---22-22222--55-55555--------I
--00-00000--00-00000---33-33333--66-66666--------I
--22-22222--11-11111---44-44444--77-77777--------I
--22-22222--22-22222---44-44444--77-77777--------I
--00-00000--00-00000---22-22222--55-55555--------I
------------00-00000-----------------------------I

di ka...  sabihin..  mo..kaya.. ako at...

-------------------------------------------------I
-------------------------------------------------I
----------1--/4-1---1-1---------1--/4-1---1-1----I
--2h4-2h4---------4-----2h4-2h4---------4--------I
-------------------------------------------------I
-------------------------------------------------I
-------------------------------------------------I

----------2--/5-2---2-2---------2--/5-2---2-2----I
--2h4-2h4---------4-----2h4-2h4---------4--------I
-------------------------------------------------I
-------------------------------------------------I
-------------------------------------------------I

A9                    A/E                 Bm
 Di ka na malulungkot, di ka na malulumbay
                       Dm                      A9
Andito na ako't sasagot sa suliranin mo sa buhay
                      A/E                    Bm
Di ka dapat mahihiyang sabihin ang porblema mo
                    Dm                   A9...A/E...A9....A/E....
Kaya tawagan nyo ako at tulungan ko kayo...

koro:
A9
Ilabas mo ang iyong saloobin
A/E                        Bm                Dm
Problema'y di dapat ilihim, dapat mong aminin
   A9                     A/E
Na ikaw ay walang mapapala kung lagi kang nakatanga
Bm                     Dm               A9....A/E...A9....A/E
Lumapit ka sa akin at tayo'y mag 2k2papa...

-------------------------------------------------I
-------------------------------------------------I
----------1--/4-1---1-1---------1--/4-1---1-1----I
--2h4-2h4---------4-----2h4-2h4---------4--------I
-------------------------------------------------I (2x)
-------------------------------------------------I

-------------------------------------------------I
----------2--/5-2---2-2---------2--/5-2---2-2----I
--2h4-2h4---------4-----2h4-2h4---------4--------I
-------------------------------------------------I
-------------------------------------------------I (2x)
-------------------------------------------------I

this time struming like this:

--00-00000--00-00000---00-00000--00-00000--------I
--00-00000--00-00000---00-00000--00-00000--------I
--22-22222--11-11111---22-22222--11-11111--------I
--22-22222--22-22222---22-22222--22-22222--------I
--00-00000--00-00000---00-00000--00-00000--------I
------------00-00000-------------00-00000--------I

A9                      A/E                    Bm
 Di ka dapat mahihiyang sabihin ang porblema mo
                    Dm                   A9...A/E...A9....A/E....
Kaya tawagan nyo ako at tulungan ko kayo...  ohhhh...

koro:
A9
Ilabas mo ang iyong saloobin
A/E                        Bm                Dm
Problema'y di dapat ilihim, dapat mong aminin
   A9                     A/E
Na ikaw ay walang mapapala kung lagi kang nakatanga
Bm                     Dm               A9....A/E...A9....A/E(adlib)
Lumapit ka sa akin at tayo'y mag 2k2papa...

-------------------------------------------------I
-------------------------------------------------I
----------1--/4-1---1-1---------1--/4-1---1-1----I
--2h4-2h4---------4-----2h4-2h4---------4--------I
-------------------------------------------------I (2x)
-------------------------------------------------I

-------------------------------------------------I
----------2--/5-2---2-2---------2--/5-2---2-2----I
--2h4-2h4---------4-----2h4-2h4---------4--------I
-------------------------------------------------I
-------------------------------------------------I (2x)
-------------------------------------------------I

(may kasabay itong adlib na mabagal)

[koro]

coda:gamitin ang kords na A9...A/E...

--00-00000--00-00000---00-00000--00-00000--------I
--00-00000--00-00000---00-00000--00-00000--------I
--22-22222--11-11111---22-22222--11-11111--------I
--22-22222--22-22222---22-22222--22-22222--------I
--00-00000--00-00000---00-00000--00-00000--------I
------------00-00000-------------00-00000--------I
-------------------------------------------------I

-------------------------------------------------I
----------1--/4-1---1-1---------1--/4-1---1-1----I
--2h4-2h4---------4-----2h4-2h4---------4--------I
-------------------------------------------------I (2x)
-------------------------------------------------I

-------------------------------------------------I
----------2--/5-2---2-2---------2--/5-2---2-2----I
--2h4-2h4---------4-----2h4-2h4---------4--------I
-------------------------------------------------I
-------------------------------------------------I (2x)
-------------------------------------------------I

mag 2k2papa
mag 2k2papa
mag 2k2papa
mag 2k2papa...

[fin]





Comments


Popular 1017 tabs & chords
Charing Bass Tabs
Ako Na Lang 1 Chords
Berting Chords
Sana Chords
Textmate Chords
Utot Chords
Berting Tabs
Sana 2 Tabs
Seloso 1 Tabs
Utot Ukulele


Song lyrics



↑ Back to top | Tablatures and chords are parodies/interpretations of the original songs. You may use it for private study, scholarship, research or language learning purposes only
© 2014 AZChords.com Contact us | Privacy policy | DMCA | Add/correct tabs | Request tabs | Top 50 tabs