» » »

100 Monkeys, Future Radio Bass tabs (ver.1)

Artists:  A B C D E F G H I J K L M N O P Q R S T U V W X Y Z # 

Future Radio Bass tabs (ver.1)

100 Monkeys Tabs
 Rating:
4/5 (4 votes)
Future Radio lessons Tabs too difficult? Try these video lessons and learn fast
                Intro:

G|----------------------------------------------------------------------|
D|----------------------------------------------------------------------|(3x)
A|-5--5--5--9--9--9-----------10--10--10--------------------------------|
E|-------------------7--7--7--------------------------------------------|

G|----------------------------------------------------------------------|
D|----------------------------------------------------------------------|
A|-5--5--5--9--9--9-----------10~---------------------------------------|
E|-------------------7--7--7--------------------------------------------|


'Latatatatitititatata' (4x)

G|----------------------------------------------------------------------|
D|-----------------4-4-4-4-4-4-4-4-----------------------------0-4-0----|  
A|-5-5-5-5-5-5-5-5-----------------2-2-2-2-2-2-2-2----------------------|
E|-------------------------------------------------3-3-3-3-3-3----------|


'Now a hundred years have passed...' (2x)

G|-------------------------------------------------------------------------|
D|-------------------------------------------------------------------------|
A|-5-5-5-5-5-5-5-5-9-9-9-9-9-9-9-9-----------------10-10-10-10-10-10-10-10-|
E|---------------------------------7-7-7-7-7-7-7-7-------------------------|


'You can hear my old bones dancing' (4x)

G|----------------------------------------------------------------------|
D|----------------------------------------------------------------------|
A|-5-x-5-x-5-x-9-x-9-x-9-x-------------10-x-10-x-10-x-------------------|
E|-------------------------7-x-7-x-7-x----------------------------------|


'...Now a hundred years have passed'(4x) 

G|-----------------------------------------------------------------------|
D|-----------------------------------------------------------------------|
A|-5-5-5-5-5-5-5-5-----------------2-2-2-2-2-2-2-2-----------------0-4-0-|
E|-----------------2-2-2-2-2-2-2-2-----------------3-3-3-3-3-3-3-3-------|


Then 2 times without singing:

G|-------------------------------------------------------------------------|
D|-------------------------------------------------------------------------|
A|-5-5-5-5-5-5-5-5-9-9-9-9-9-9-9-9-----------------10-10-10-10-10-10-10-10-|
E|---------------------------------7-7-7-7-7-7-7-7-------------------------|


'You can hear my old bones dancing' (4x)

G|-----------------------------------------------------------------------|
D|-----------------------------------------------------------------------|
A|-5-x-5-x-5-x-9-x-9-x-9-x-------------10-x-10-x-10-x--------------------|
E|-------------------------7-x-7-x-7-x-----------------------------------|


Then 4 times without singing:

G|-----------------------------------------------------------------------|
D|-----------------------------------------------------------------------|
A|-5-5-5-5-5-5-5-5-----------------2-2-2-2-2-2-2-2-----------------0-4-0-|
E|-----------------2-2-2-2-2-2-2-2-----------------3-3-3-3-3-3-3-3-------|


'Oh, the other day I was bored...' (2x)

G|-------------------------------------------------------------------------|
D|-------------------------------------------------------------------------|
A|-5-5-5-5-5-5-5-5-9-9-9-9-9-9-9-9-----------------10-10-10-10-10-10-10-10-|
E|---------------------------------7-7-7-7-7-7-7-7-------------------------|


'Latatatatitititatata' (2x, then 2x just acapella)

G|-----------------------------------------------------------------------|
D|-----------------------------------------------------------------------|
A|-5-x-5-x-5-x-9-x-9-x-9-x-------------10-x-10-x-10-x--------------------|
E|-------------------------7-x-7-x-7-x-----------------------------------|


Then 2 times (1x without singing): 
'Keepin' me alive...'

G|-----------------------------------------------------------------------|
D|-----------------4-4-4-4-4-4-4-4-----------------------------0-4-0-----|  
A|-5-5-5-5-5-5-5-5-----------------2-2-2-2-2-2-2-2-----------------------|
E|-------------------------------------------------3-3-3-3-3-3-----------|


3 times:

G|-------------------------------------------------------------------------|
D|-------------------------------------------------------------------------|
A|-5-5-5-5-5-5-5-5-9-9-9-9-9-9-9-9-----------------10-10-10-10-10-10-10-10-|
E|---------------------------------7-7-7-7-7-7-7-7-------------------------|


Song ends with this:

G|--------|
D|--------|
A|-5------|
E|--------|


That's the whole song. It's simple and really easy to play.
            
Submit corrections

comments powered by Disqus
↑ Back to top | 100 Monkeys Bass for Future Radio. Lyrics for acoustic guitar and electric guitar. Tablatures and chords are parodies/interpretations of the original songs. You may use it for private study, scholarship, research or language learning purposes only